Oops, an error
Loading. Please wait.

El Día Que Me Quieras tab

version 1
version 1

Whole song

Interactive

666 views 1 this week
no commentswrite comment
1 2 3 4 5
2 more votes to show rating
add to favorites
×
Save as Personal and add changes to this tab that will be seen only by you. Learn more ›
×
You can save this tab as Personal to edit and correct it or add notes. All changes will be seen only by you. Learn more »
launch autoscroll
font size
0
reset
how to read this tab
guitar tuner
edit
Autoscroll
slow
fast
+/-
esc
set tempo
stop
              DO                LAm             SOL

e---------0--3--7---5-3----3-3---0------------------------3
B------1---------------------------3---3--1--1--1------1---
G-0-------------------------------------------------2------
  Acaricia mi ensueño el suave murmullo de tu suspirar.

     -DO#7/9    LAm               RE7                   SOL

e-1---1---1--0--1--0--0----------------0-0-----------------
B-------------------------3--3--1------------3---1--------3
G-----------------------------------2---------------1--2---
  Cómo ríe la vida si tus ojos negros me quieren mirar.

                  DO              LA9-                  SOL

e---------0--3--7---5--3--3--3---1--0-3--3--3--3--2--0---7-
B-----1----------------------------------------------------
G-0--------------------------------------------------------
  Y si es mío el amparo de tu risa leve que es como un cantar,

-DO#7/9           LA7     RE7          RE7 FA   SOL

e-7---8---7-----0---7-5----5---7--5--------5---4-------3-
B------------4-----------------------3--4----------------
G--------------------------------------------------------
  ella aquieta mi herida,  todo, todo se olviiiiida.


              DO     MI7

e-----0---0---0----1---0-
B---------------3--------
G--0---------------------
  El día que me quieras

                LA   DO7

e--0---0---------0--------
B----------3--3-----3---1-
G-------------------------
  la rosa que engalana

              FA    LA7

e-------------------5----
B--1---3--1--0---1-------
G------------------------
  se vestirá de fiesta

RE              re(2)

e-5--5--5---3--6---5---5-
B------------------------
G------------------------
  con su mejor color.


                SOL    DO#7/9

e---5--5--3---------5----3-1-
B-------------2---3----------
G----------------------------
  Y al viento las campanas

                   LA  LA7

e---1--0----------------
B-------------0---3---1-
G----------3------------
  dirán que ya eres mía,

              RE7 2

e-------------------0--
B---1---3-1-0---1------
G----------------------
  y locas las fontanas

                SOL SOL

e-0--------------------3-
B-----1--3--1---0---1----
G------------------------
  se contarán tu amor.


                DO    MI7

e-----0---0---0-----1-0---
B----------------3--------
G-0-----------------------
  La noche que me quieras

                   LA    DO7
e--0--0---------0---------
B--------3---3-----3--1---
G ------------------------
  desde el azul de cielo,

                  FA

e------------------5----5-
B---1--3--1--0--1---------
G-------------------------
  las estrellas celosas

LRE           re(2)

e---5--5---3---6--5--5-
B----------------------
G----------------------
  nos mirarán pasar.


               MI7  SOL

e--5--5--4--7--5--5--
B--------------------
Gm ------------------
  Y un rayo misterioso

SOL             RE   FA

e-4--3--3--2--5--3--3-1--
B------------------------
G------------------------
  hará nido en tu pelo,

              DO

e---1--3--1--------0-----
B------------1--3--------
G------------------------
  luciérnaga curiosa

  LA   RE7             SOL    DO

e--3--7--5--3--0---------1-----------
B-----------------1---------3---1----
G--------------------2---------------
  que verás  que eres mi consuelo.


  "En memoria de Jeremias Nos"

            
            
Suggest correction
Creating personal tab
Creating personal tab
You can edit any tab online and save it as your Personal.

You can edit, replace or remove any tab part or add personal notes – all changes will be seen only by you.

Personal tabs can be accessed anytime from any device, even offline.
Learn more »
Give kudos to tab author, rate the tab!
1 2 3 4 5
comments
print report bad tab
guest
Wanna post a correction for this tab? Suggest correction