Oops, an error
Loading. Please wait.

Nicaragua Nicaragüita tab

604 views 6 this week
no commentswrite comment
1 2 3 4 5
3 more votes to show rating
add to favorites
×
Save as Personal and add changes to this tab that will be seen only by you. Learn more ›
×
You can save this tab as Personal to edit and correct it or add notes. All changes will be seen only by you. Learn more »
launch autoscroll
font size
0
reset
how to read this tab
guitar tuner
edit
Autoscroll
slow
fast
+/-
esc
set tempo
stop
Tablatura de Nicaragua Nicaragüita

 -La letra no está exactamente sincronizada con las notas!
 -Los acordes si están sincronizados con las notas
 -En la tablatura se encuentra abajo el texto y arriba los acordes
 -Cuando se repite la canción hay que subir los acordes una nota,
  osea que en vez de:
  C - D
  C7 - D7
  F - G
  G - A

- Capodastro en el segundo traste -

    (C)                                                     (G)
e-|--------------------------0--0-------------0--0--3-----0-----|
B-|--------------------1--3-------------1--3-----------1-----3--|
G-|--0--0-----------0----------------0--------------------------|
D-|--------3--2--2----------------------------------------------|
A-|-------------------------------------------------------------|
E-|-------------------------------------------------------------|
     Ay Nicaragua, Nicaragüita, la flor mas linda de mi querer


          (F)            (C)            (G)                 (C)  (G)
e-|-----0--1--1--5-----1--0--0--3-----0---------------1--0---0--|
B-|--3--------------3--------------1-----------------------3----|
G-|--------------------------------------0--0--0-0-0------------|
D-|-------------------------------------------------------------|
A-|-------------------------------------------------------------|
E-|-------------------------------------------------------------|
     abonada con la bendita, Nicaragüita, sangre de Diriangén


          (F)            (C)            (G)                 (C)
e-|-----0--1--1--5-----1--0--0--3-----0---------------1--0------|
B-|--3--------------3--------------1-----------------------3--1-|
G-|--------------------------------------0--0--0-0-0------------|
D-|-------------------------------------------------------------|
A-|-------------------------------------------------------------|
E-|-------------------------------------------------------------|
     abonada con la bendita, Nicaragüita, sangre de Diriangén


    (C)                          (C7)                   (F)
e-|--------------------------0--0---------------------0--1------|
B-|--------------------1--3-------------1-1-1-1-1--3------------|
G-|--0--0-----------0----------------0--------------------------|
D-|--------3--2--2----------------------------------------------|
A-|-------------------------------------------------------------|
E-|-------------------------------------------------------------|
     Ay Nicaragua sos mas dulcita, que la mielita de Tamagas


          (F)            (C)            (G)                 (C)  (F)
e-|-----0--1--1--5-----1--0--0--3-----0---------------1--0---0--|
B-|--3--------------3--------------1-----------------------3----|
G-|--------------------------------------0--0--0-0-0------------|
D-|-------------------------------------------------------------|
A-|-------------------------------------------------------------|
E-|-------------------------------------------------------------|
  pero ahora que ya sos libre, Nicaragüita, yo te quiero mucho mas


          (F)            (C)            (G)                 (C)
e-|-----0--1--1--5-----1--0--0--3-----0---------------1--0------|
B-|--3--------------3--------------1-----------------------3--1-|
G-|--------------------------------------0--0--0-0-0------------|
D-|-------------------------------------------------------------|
A-|-------------------------------------------------------------|
E-|-------------------------------------------------------------|
  pero ahora que ya sos libre, Nicaragüita, yo te quiero mucho mas

            
            
Suggest correction
Creating personal tab
Creating personal tab
You can edit any tab online and save it as your Personal.

You can edit, replace or remove any tab part or add personal notes – all changes will be seen only by you.

Personal tabs can be accessed anytime from any device, even offline.
Learn more »
Give kudos to tab author, rate the tab!
1 2 3 4 5
comments
print report bad tab
guest
Wanna post a correction for this tab? Suggest correction