Oops, an error
Loading. Please wait.

Confusión tab

62 views 1 this week
no commentswrite comment
1 2 3 4 5
3 more votes to show rating
add to favorites
×
Save as Personal and add changes to this tab that will be seen only by you. Learn more ›
×
You can save this tab as Personal to edit and correct it or add notes. All changes will be seen only by you. Learn more »
launch autoscroll
font size
0
reset
how to read this tab
guitar tuner
edit
Autoscroll
slow
fast
+/-
esc
set tempo
stop
Hola mi nombre es Martin y es la primera vez que subo un tema,
espero que este bien y que les guste.

NOTA:todas las notas estan en quinta (G#5,B5 etc.)

G#
La noche en juego roces
Confusión la vida y más      Estribillo X3
Plegarias, grito a voces
te deseo todo y más.


Riff x2

1)---------------------------------------------------------
2)---------------------------------------------------------
3)----3/4-6------------------------------------------------
4)----------6---------6-4-----------------6-4--------------
5)------------------------5-6-----------------5-6----------
6)------------------4---------6-7/4-----4---------6-7/4----


G#
Como a cuatro pasos del cielo
           B C# A#
un obscuro despertar
G#5
Un coro del infierno
                B  C# A#
todo en sincro por azar.

   E
Escúchame, te voy a hablar
D#    C#   B A# B        C#
voy a ser tu ángel enfermo,
                   D#
tu mortal seguridad
B
ahhhh, ahhhh, ahhhh


G#
La noche en juego roces
confusión la vida y más
Plegarias, grito a voces
Te deseo todo y más.

Riff x2

1)---------------------------------------------------------
2)---------------------------------------------------------
3)----3/4-6------------------------------------------------
4)----------6---------6-4-----------------6-4--------------
5)------------------------5-6-----------------5-6----------
6)------------------4---------6-7/4-----4---------6-7/4----


G#
Quedo absorto, nulo, neutro
            B  C# A#
como sin poder hablar
G#
Las palabras solo intento
               B  C# A#  E
aunque no quiera callar.

E
La insensatez, de la ansiedad
 D#    C#   B A# B        C#
cobra vida el lado siniestro
                  D#
muero uno nazco mas
B
ahhhh, ahhhh, ahhhh

G#
La noche en juego roces
confusión la vida y más
Plegarias, grito a voces
te deseo todo y más.

Riff x1

1)---------------------------------------------------------
2)---------------------------------------------------------
3)----3/4-6------------------------------------------------
4)----------6---------6-4-----------------6-4--------------
5)------------------------5-6-----------------5-6----------
6)------------------4---------6-7/4-----4---------6-7/4----


Riff x1
1)---------------------------------------------------------
2)---------------------------------------------------------
3)----3/4-6------------------------------------------------
4)----------6---------6-4-------------------6-4------------
5)------------------------5-6-5-----------------5-6--------
6)------------------4-----------6-7/4-----4---------6-7/4--


G#
Casi loco, juego enfermo
                  B  C# A#
Casi vicio no es casual
G#
que ocurra este encuentro
                 B  C# A#  E
Y lo q esta por pasar.

   E
Escúchame, te voy a hablar
D#    C#   B A# B        C#
voy a ser tu ángel enfermo.
                   D#
tu mortal seguridad
B
ahhhh, ahhhh, ahhhh

G#
La noche en juego roces,
La noche en juego roces,
La noche en juego roces,
La noche en juego roces,
La noche en juego roces,
confusión la vida y más,
confusión la vida y más,
confusión la vida y más,
te deseo todo y más.


Saludos a todos ?
Aguante catupecu

gonzalito_m22@

            
            
Suggest correction
Creating personal tab
Creating personal tab
You can edit any tab online and save it as your Personal.

You can edit, replace or remove any tab part or add personal notes – all changes will be seen only by you.

Personal tabs can be accessed anytime from any device, even offline.
Learn more »
Give kudos to tab author, rate the tab!
1 2 3 4 5
comments
print report bad tab
guest
Wanna post a correction for this tab? Suggest correction