Oops, an error
Loading. Please wait.

Héroes Anónimos tab

version 2
version 2

Whole song

38 views 1 this week
no commentswrite comment
1 2 3 4 5
3 more votes to show rating
add to favorites
×
Save as Personal and add changes to this tab that will be seen only by you. Learn more ›
×
You can save this tab as Personal to edit and correct it or add notes. All changes will be seen only by you. Learn more »
launch autoscroll
font size
0
reset
how to read this tab
guitar tuner
edit
Autoscroll
slow
fast
+/-
esc
set tempo
stop
Esta tab. no es mia, sino que es una correción del tema. No es B sino Em.
Y un punteito que hacen al final.

Intro: B

       B
1) Estamos atrapados en la misma red
      F#            Em
   viajando por un laberinto

1) Estamos sosteniendo una pared
   por favor no la dejes caer

1) Ceferino no me escucha mas
   a donde fue la madre María

  A                     B
2)  Aunque no creo en la casualidad
     F#
    Sueño con loterías

            B
3)  Todos somos heroes anónimos
       Em F#         G    A
    guerreros en este lugar


3)  Peleando con el corazon
    compartiendo tanta soledad  ( G A G A B )

---- SOLO ----

1) Me bombardean otra vez
   vuelvo a contruir mi casa

2) Como una fuerza del mas alla
   creo en tu mirada

3) Todos somos heroes anonimos
   guerreros en este lugar

3) Peleando con el corazon
   compartiendo tanta soledad

    B                Em F# G A B
   Heroes anonimos


---- SOLO ----

---------------------------------------
---------------------------------------
---------------------------------------
-1-1-1-1-1-1-2-1-4---------------------
-------------------2-2-2-4-4-2-4/5-4-2-
---------------------------------------

---------------------------------------
---------------------------------------
---------------------------------------
-3/13-13-13-13-13-13-13-14-13-16-------
---------------------------------------
---------------------------------------

-------------------------------------
-------------------------------------
-------------------------------------
-------------------------------------
-14-14-14-16-16-14-16/17-16-14-------
-------------------------------------

-------------------------------------
-------------------------------------
-------------------------------------
-16-XXXX-16-XXXX-16-XXXX-16-XXXX--16-
-14-XXXX-14-XXXX-14-XXXX-14-XXXX--14-
-------------------------------------
______________________________________________
Esto va antes de terminar el tema.

-------------------------------------
------------------------------2------
------4------4-------4---------------  x2
----4--4---4---4---4---4---4----4----
--2------2-------2-------2-----------
-------------------------------------

Fin  B

El tema se toca en quintas para que suene igual. Todo lo demás esta perfecto.
Musicos q quieran formar una banda mandenme un mail a matimatocq@

            
            
Suggest correction
Creating personal tab
Creating personal tab
You can edit any tab online and save it as your Personal.

You can edit, replace or remove any tab part or add personal notes – all changes will be seen only by you.

Personal tabs can be accessed anytime from any device, even offline.
Learn more »
Give kudos to tab author, rate the tab!
1 2 3 4 5
comments
print report bad tab
guest
Wanna post a correction for this tab? Suggest correction