Oops, an error
Loading. Please wait.

Chancho Lolín bass

44 views 3 this week
no commentswrite comment
1 2 3 4 5
3 more votes to show rating
add to favorites
×
Save as Personal and add changes to this tab that will be seen only by you. Learn more ›
×
You can save this tab as Personal to edit and correct it or add notes. All changes will be seen only by you. Learn more »
launch autoscroll
font size
0
reset
guitar tuner
edit
Autoscroll
slow
fast
+/-
esc
set tempo
stop
Intro
G|----------------|x4 despues  |---------|
D|----------------|   se toka  |---------|
A|-8-x-7----------|   esto     |---------|
E|--------0h1h2h3-|            |-0000000-|

Verso
G|-----------------------------------------------|
D|-----------------------------------------------|
A|-5555555555555555-88888888888-77777777---------|
E|---------------------------------------6666666-|

No trae, no trae, no trae cuello...
G|-------------------------------------------------------------------|x2
D|-------------------------------------------------------3h5-3333333-|
A|-0-3h5--0-3h5--0-3h5-3-0---------0-3h5--0-3h5--0-3h5-3-------------|
E|-------------------------3333333-----------------------------------|

Verso
G|-----------------------------------------------|
D|-----------------------------------------------|
A|-5555555555555555-88888888888-77777777---------|
E|---------------------------------------6666666-|

No trae, no trae, no trae cuello...
G|-------------------------------------------------------------------|x2
D|-------------------------------------------------------3h5-3333333-|
A|-0-3h5--0-3h5--0-3h5-3-0---------0-3h5--0-3h5--0-3h5-3-------------|
E|-------------------------3333333-----------------------------------|

    NO, NO TRAE CUELLO

Firma lolin...
G|----------------|x4 despues  |---------|
D|----------------|   se toka  |---------|
A|-8-x-7----------|   esto     |---------|
E|--------0h1h2h3-|            |-0000000-|

Solo de guitarra
G|-----------------------------------------------|se toka varias
D|-----------------------------------------------|veces
A|-5555555555555555-88888888888-77777777---------|
E|---------------------------------------6666666-|

paso, paso, una noche preso
G|-------------------------------------------------------------------|x2
D|-------------------------------------------------------3h5-3333333-|
A|-0-3h5--0-3h5--0-3h5-3-0---------0-3h5--0-3h5--0-3h5-3-------------|
E|-------------------------3333333-----------------------------------|

Chancho lolin, chancho lolin!!!
G|-----------------------------------------------|se toka varias
D|-----------------------------------------------|veces
A|-5555555555555555-88888888888-77777777---------|
E|---------------------------------------6666666-|

Los versos se repiten artas veses.. la kancion suena la raja...
¡¡¡VIVA CHILE MIERDA Y LOS CHANCHO EN PIEDRA!!!

            
            
Suggest correction
Creating personal tab
Creating personal tab
You can edit any tab online and save it as your Personal.

You can edit, replace or remove any tab part or add personal notes – all changes will be seen only by you.

Personal tabs can be accessed anytime from any device, even offline.
Learn more »
Give kudos to tab author, rate the tab!
1 2 3 4 5
comments
print report bad tab
guest
Wanna post a correction for this tab? Suggest correction