Oops, an error
Loading. Please wait.

Suéltame tab

by Coti
17 views 1 this week
no commentswrite comment
1 2 3 4 5
3 more votes to show rating
add to favorites
×
Save as Personal and add changes to this tab that will be seen only by you. Learn more ›
×
You can save this tab as Personal to edit and correct it or add notes. All changes will be seen only by you. Learn more »
launch autoscroll
font size
0
reset
how to read this tab
guitar tuner
edit
Autoscroll
slow
fast
+/-
esc
set tempo
stop
GUITARRA 1(base):

G
G  C D Am D

G                C            D
Suéltame, no me quiero quedar acá,
          Am                      D
siento pequeño el espacio que me das.
  G              C                 D
Suéltame, ya no tengo ganas de hablar,
        Am                 D
mejor dejemos el pasado atrás.

      C     D   G                C
Por qué buscar donde está el culpable
   C      Am         D                            G
si es que todo terminó... y ya no hay nada que hacer.

G               C              F
Solo hay que mirar hacia otra parte
      D             G
y buscar en otro lugar
             C        F
algo que me haga olvidarte
    D                 G  C D Am D
y así dejarlo todo atrás.


  G                C            D
Suéltame, no me quiero quedar acá,
      Am                   D
te di todo lo que tengo y más.
 G                 C              D
Déjame, ya no hay nada que recuperar,
            Am               D
cuando esto pasa por algo será.

      C     D   G                C
Por qué buscar donde está el culpable
   C      Am         D                            G
si es que todo terminó... y ya no hay nada que hacer.

G               C              F
Solo hay que mirar hacia otra parte
      D             G
y buscar en otro lugar
             C        F
algo que me haga olvidarte
    D                 G
y así dejarlo todo atrás.

G               C              F
Solo hay que mirar hacia otra parte
      D             G
y buscar en otro lugar
             C        F
algo que me haga olvidarte
    D                 G C F Am x 2
y así dejarlo todo atrás.


G               C              F
Solo hay que mirar hacia otra parte
      D             G
y buscar en otro lugar
             C        F
algo que me haga olvidarte
    D                 G
y así dejarlo todo atrás.

D  G
D (G)

------------------------------
GUITARRA 2:

Intro:
      G               C        D   Am        D
e---(10)--7-(7)---5---5-7-8--------5-7-8---------------------
B-------------------8-------8-(7)---------8-(7)--------------
G------------------------------------------------------------
D------------------------------------------------------------
A------------------------------------------------------------
E------------------------------------------------------------

Versos:
   G  C  D   Am       D
e---------------(0)-----(2)--
B--------------(1)-----(3)---
G-------------(2)-----(2)----
D------------(2)-----(0)-----
A-----------(0)--------------
E----------------------------


?Por que buscar donde esta el culpable?
   C           D           G           C
e--10-10-10-10-10-10-10-10-10-10-10-10-8-8-8-8---------------
B--8--8--8--8--8--8--8--8--8--8--8--8--8-8-8-8---------------
G------------------------------------------------------------
D------------------------------------------------------------
A------------------------------------------------------------
E------------------------------------------------------------

?si es que todo terminó... y ya no hay nada que hacer?
   C       Am         D
e--8-8-7-7-5-5-3-3--------------------
B--8-8-7-7-5-5-3-3---(3)-(1)----------
G----------------------------(4)-(2)--
D-------------------------------------
A-------------------------------------
E-------------------------------------

Estribillo:
    G            C          F                D
e-------(3)---------------------(1)------------------
B------(3)---1-0---------------(1)---1-0-------------
G-----(0)--------2-0----------(2)--------2-0---------
D----(0)-------------2-------(3)-------------4--2-0--
A---(2)---------------------(3)----------------------
E--(3)---------------------(1)-----------------------

Punteo:
   G         C             F      Am
e-----------------------------------------------
B--------0---1--0-1-0-----------1-3-3-3-1-0-----
G-(0)--0---0----------2-0-----2-----------------
D-------------------------(3)-------------------
A-----------------------------------------------
E-----------------------------------------------

   G         C             F      Am
e-----------------------------------------------
B--------0---1--0-1-0-----------1-3-3-3-1-0-----
G-(0)--0---0----------2-0-----2-------------(0)-
D-------------------------(3)-------------------
A-----------------------------------------------
E-----------------------------------------------


------------------------------
GUITARRA 3:

?si es que todo terminó... y ya no hay nada que hacer?
   C   Am     D                   G
e--8-7-5-3s7--10--12--14---10s15(15v)-
B-------------------------------------
G-------------------------------------
D-------------------------------------
A-------------------------------------
E-------------------------------------

Final:
    G  D G   D   (G)
e-(15v)-----10s15(15v)------
B---------------------------
G---------------------------
D---------------------------
A---------------------------
E---------------------------

-----------------------------------------------------------
Notas:
(): dejar sonar
v: vibrato
s: deslizamiento

Sugerencias, correcciones, comentarios, etc. al mail.

            
            
Suggest correction
Creating personal tab
Creating personal tab
You can edit any tab online and save it as your Personal.

You can edit, replace or remove any tab part or add personal notes – all changes will be seen only by you.

Personal tabs can be accessed anytime from any device, even offline.
Learn more »
Give kudos to tab author, rate the tab!
1 2 3 4 5
comments
print report bad tab
guest
Wanna post a correction for this tab? Suggest correction