Oops, an error
Loading. Please wait.

7 Screaming Diz-Busters tab

version 1
version 1

Whole song

448 views 1 this week
no commentswrite comment
1 2 3 4 5
1 last vote to show rating
add to favorites
×
Save as Personal and add changes to this tab that will be seen only by you. Learn more ›
×
You can save this tab as Personal to edit and correct it or add notes. All changes will be seen only by you. Learn more »
launch autoscroll
font size
0
reset
how to read this tab
guitar tuner
edit
Autoscroll
slow
fast
+/-
esc
set tempo
stop
Author
-------------------------------------------------------------------------------
                 7 Screaming Diz-busters - Blue Öyster Cult
-------------------------------------------------------------------------------
Tabbed by: LoggyK
E-mail: Loggy.King@gmail.com

Tuning: EADGBe

Main Riff
e|---------------------------------------------------------------------------|
B|---------------------------------------------------------------------------|
G|-------------------2^------------------------------------2^----------------|
D|----------2--4-----3^---------------------------2--4-----3^----------------|
A|--2---4-5-------------------------------2---4-5----------------------------|
E|---------------------------------------------------------------------------|
(repeat x4)


They held their heads with laughs of pain
They learned from men, who'd just refrain
e|---7-------7--------7------9-----------------------------------------------|
B|---7-------8--------8------10----------------------------------------------|
G|---7-------7--------7------9-----------------------------------------------|
D|---7-------9--------9------11----------------------------------------------|
A|---9-------7--------0------0-----------------------------------------------|
E|---7----------------7------9-----------------------------------------------|


From glancing at a mirror's face
e|---------------------------------------------------------------------------|
B|---------------------------------------------------------------------------|
G|---------------------------------------------------------------------------|
D|----------------2----------------------------------------------------------|
A|--------------2---5-4~-----------------------------------------------------|
E|--2----2-4-5---------------------------------------------------------------|


7 screaming diz busters...
e|---------------------------------------------------------------------------|
B|---------------------------------------------------------------------------|
G|---------------------------------------------------------------------------|
D|---------------------------------------------------------------------------|
A|---------------------------------------------------------------------------|
E|--2---2-5-2---2-5-2---2-5-2---2-5-2---2-5-2---2-5-2---2-5-2---2-5-2--------|

(not sure if this part is correct)
e|---------------------------------------------------------------------------|
B|---------------------------------------------------------------------------|
G|---------------------------------------------------------------------------|
D|----------2h4p2------------2h4p2-------------------------------------------|
A|------2h4-------4------2h4-------4-----------------------------------------|
E|--2h4--------------2h4----------------=------------------------------------|

    E       B                           D       A 
On each and all those holy nights, When dusters dust becomes the sale
    G
And Lucifer the light, the light
e|--7--7-----5--5------------------------------------------------------------|
B|--7--7-----5--5------------------------------------------------------------|
G|--9--8-----7--6------------------------------------------------------------|
D|--9--9-----7--7------5---5----5----5---------------------------------------|
A|--7--9-----5--7------5---5----5----5---------------------------------------|
E|-----7--------5------3---3----3----3---------------------------------------|
    E  B     D  A      G 

e|---------------------------------------------------------------------------|
B|---------------------------------------------------------------------------|
G|-------------------2^------------------------------------2^----------------|
D|----------2--4-----3^---------------------------2--4-----3^----------------|
A|--2---4-5-------------------------------2---4-5----------------------------|
E|---------------------------------------------------------------------------|
************************************

| /   slide up
| \   slide down
| h   hammer-on
| p   pull-off
| ~   vibrato
| +   harmonic
| x   Mute note
| b   Bend
| pb  Pre-bend
| br  Bend release
| pbr Pre-bend release
| brb Bend release bend

************************************

            
            
Suggest correction
Creating personal tab
Creating personal tab
You can edit any tab online and save it as your Personal.

You can edit, replace or remove any tab part or add personal notes – all changes will be seen only by you.

Personal tabs can be accessed anytime from any device, even offline.
Learn more »
Give kudos to tab author, rate the tab!
1 2 3 4 5
comments
print report bad tab
guest
You may want to rate the tab now too:
select rating
Wanna post a correction for this tab? Suggest correction