Oops, an error
Loading. Please wait.

Les Hautes Lumières tab

by Fauve
262 views 3 this week
no commentswrite comment
1 2 3 4 5
3 more votes to show rating
add to favorites
×
Save as Personal and add changes to this tab that will be seen only by you. Learn more ›
×
You can save this tab as Personal to edit and correct it or add notes. All changes will be seen only by you. Learn more »
launch autoscroll
font size
0
reset
how to read this tab
guitar tuner
edit
Autoscroll
slow
fast
+/-
esc
set tempo
stop
[Intro]

e|----------------------|----------------------|----------------------|----------------------|
B|------1--------1------|------3--------3------|------3--------1------|------5--------5------|
G|----2---2-2--2---2-2--|----------------------|----------------------|----------------------|
D|--3------3-3------3---|----3---3-3--3---3-3--|----3---3-3--2---2-2--|----5---5-5--5---5-5--|
A|----------------------|--5------5-5------5---|--1------1-0------0---|--3------3-3------3---|
E|----------------------|----------------------|----------------------|----------------------|

e|----------------------|--------------------------|-----------------------|------1--------1------|
B|------6--------6------|-------8----------8-------|-------3--------5------|----------------------|
G|----------------------|--------------------------|-----------------------|----2---2-2--2---2-2--|
D|----7---7-7--7---7-7--|-----8---8--8---8---8--8--|-----3---3-3--5---5-5--|--3------3-3------3---|
A|--5------5-5------5---|--10------10-10------10---|--\1------1-3------3---|----------------------|
E|----------------------|--------------------------|-----------------------|----------------------|


[Verse 1]

e|----------------------|-----------------------|----------------------|-----------------------------------|
B|----------------------|-----------------------|----------------------|-----------------------------------|
G|------7--------5------|------3------2--2------|------7--------5------|--------9-----9----9---------------|
D|----8---8-8--7---7-7--|----5---5-5-------3-3--|----8---8-8--7---7-7--|-----10-----10---10--(10)----(10)--|
A|--8------8-7------7---|--5------5-3-------3---|--8------8-7------7---|--10------10---10--------(10)------|
E|----------------------|-----------------------|----------------------|-----------------------------------|

e|----------------------|----------------------|----------------------|------------------------|
B|----------------------|----------------------|----------------------|------------------------|
G|------7--------5------|------3--------2------|------3--------2------|------0---0--0----------|
D|----8---8-8--7---7-7--|----5---5-5--3---3-3--|----5---5-5--3---3-3--|----2----2--2--(2)-(2)--|
A|--8------8-7------7---|--5------5-3------3---|--5------5-3------3---|--3-----3--3-----(3)----|
E|----------------------|----------------------|----------------------|------------------------|

e|----------------------|-----------------------|----------------------|-----------------------------------|
B|----------------------|-----------------------|----------------------|-----------------------------------|
G|------7--------5------|------3------2--2------|------7--------5------|--------9-----9----9---------------|
D|----8---8-8--7---7-7--|----5---5-5-------3-3--|----8---8-8--7---7-7--|-----10-----10---10--(10)----(10)--|
A|--8------8-7------7---|--5------5-3-------3---|--8------8-7------7---|--10------10---10--------(10)------|
E|----------------------|-----------------------|----------------------|-----------------------------------|

e|----------------------|----------------------|----------------------|------------------------|
B|----------------------|----------------------|----------------------|------------------------|
G|------7--------5------|------3--------2------|------3--------2------|------0---0--0----------|
D|----8---8-8--7---7-7--|----5---5-5--3---3-3--|----5---5-5--3---3-3--|----2----2--2--(2)-(2)--|
A|--8------8-7------7---|--5------5-3------3---|--5------5-3------3---|--3-----3--3-----(3)----|
E|----------------------|----------------------|----------------------|------------------------|


[Refrain]

e|----------------------|----------------------|----------------------|----------------------|
B|------1--------1------|------3--------3------|------3--------1------|------5--------5------|
G|----2---2-2--2---2-2--|----------------------|----------------------|----------------------|
D|--3------3-3------3---|----3---3-3--3---3-3--|----3---3-3--2---2-2--|----5---5-5--5---5-5--|
A|----------------------|--5------5-5------5---|--1------1-0------0---|--3------3-3------3---|
E|----------------------|----------------------|----------------------|----------------------|

e|----------------------|--------------------------|-----------------------|------1--------1------|
B|------6--------6------|-------8----------8-------|-------3--------5------|----------------------|
G|----------------------|--------------------------|-----------------------|----2---2-2--2---2-2--|
D|----7---7-7--7---7-7--|-----8---8--8---8---8--8--|-----3---3-3--5---5-5--|--3------3-3------3---|
A|--5------5-5------5---|--10------10-10------10---|--\1------1-3------3---|----------------------|
E|----------------------|--------------------------|-----------------------|----------------------|


[Verse 2]

e|----------------------|----------------------|----------------------|-----------------------------------|
B|----------------------|----------------------|----------------------|-----------------------------------|
G|------7--------5------|------3--------2------|------7--------5------|--------9-----9----9---------------|
D|----8---8-8--7---7-7--|----5---5-5--3---3-3--|----8---8-8--7---7-7--|-----10-----10---10--(10)----(10)--|
A|--8------8-7------7---|--5------5-3------3---|--8------8-7------7---|--10------10---10--------(10)------|
E|----------------------|----------------------|----------------------|-----------------------------------|

e|----------------------|----------------------|----------------------|------------------------|
B|----------------------|----------------------|----------------------|------------------------|
G|------7--------5------|------3--------2------|------3--------2------|------0---0--0----------|
D|----8---8-8--7---7-7--|----5---5-5--3---3-3--|----5---5-5--3---3-3--|----2----2--2--(2)-(2)--|
A|--8------8-7------7---|--5------5-3------3---|--5------5-3------3---|--3-----3--3-----(3)----|
E|----------------------|----------------------|----------------------|------------------------|

e|----------------------|----------------------|----------------------|-----------------------------------|
B|----------------------|----------------------|----------------------|-----------------------------------|
G|------7--------5------|------3--------2------|------7--------5------|--------9-----9----9---------------|
D|----8---8-8--7---7-7--|----5---5-5--3---3-3--|----8---8-8--7---7-7--|-----10-----10---10--(10)----(10)--|
A|--8------8-7------7---|--5------5-3------3---|--8------8-7------7---|--10------10---10--------(10)------|
E|----------------------|----------------------|----------------------|-----------------------------------|

e|----------------------|----------------------|----------------------|------------------------|
B|----------------------|----------------------|----------------------|------------------------|
G|------7--------5------|------3--------2------|------3--------2------|------0---0--0----------|
D|----8---8-8--7---7-7--|----5---5-5--3---3-3--|----5---5-5--3---3-3--|----2----2--2--(2)-(2)--|
A|--8------8-7------7---|--5------5-3------3---|--5------5-3------3---|--3-----3--3-----(3)----|
E|----------------------|----------------------|----------------------|------------------------|


[Refrain]

e|----------------------|----------------------|----------------------|----------------------|
B|------1--------1------|------3--------3------|------3--------1------|------5--------5------|
G|----2---2-2--2---2-2--|----------------------|----------------------|----------------------|
D|--3------3-3------3---|----3---3-3--3---3-3--|----3---3-3--2---2-2--|----5---5-5--5---5-5--|
A|----------------------|--5------5-5------5---|--1------1-0------0---|--3------3-3------3---|
E|----------------------|----------------------|----------------------|----------------------|

e|----------------------|--------------------------|-----------------------|------1--------1------|
B|------6--------6------|-------8----------8-------|-------3--------5------|----------------------|
G|----------------------|--------------------------|-----------------------|----2---2-2--2---2-2--|
D|----7---7-7--7---7-7--|-----8---8--8---8---8--8--|-----3---3-3--5---5-5--|--3------3-3------3---|
A|--5------5-5------5---|--10------10-10------10---|--\1------1-3------3---|----------------------|
E|----------------------|--------------------------|-----------------------|----------------------|


[Bridge]

e|--------------------|--------------------|-------------------|--------------------|
B|--1-----------------|--3-----------------|--3-------1--------|--5-----------------|
G|--2-----------------|--------------------|-------------------|--------------------|
D|--3-----------------|--3-----------------|--3-------2--------|--5-----------------|
A|--------------------|--5-----------------|--1-------0--------|--3-----------------|
E|--------------------|--------------------|-------------------|--------------------|

e|--------------------|--------------------|-------------------|--1-----------------|
B|--6-----------------|--8-----------------|--3-------5--------|--------------------|
G|--------------------|--------------------|-------------------|--2-----------------|
D|--7-----------------|--8-----------------|--3-------5--------|--3-----------------|
A|--5-----------------|--10----------------|--1-------3--------|--------------------|
E|--------------------|--------------------|-------------------|--------------------|


[Verse 3]

  1                      2                      3                      4
e|----------------------|----------------------|----------------------|-----------------------------------|
B|----------------------|----------------------|----------------------|-----------------------------------|
G|------7--------5------|------3--------2------|------7--------5------|--------9-----9----9---------------|
D|----8---8-8--7---7-7--|----5---5-5--3---3-3--|----8---8-8--7---7-7--|-----10-----10---10--(10)----(10)--|
A|--8------8-7------7---|--5------5-3------3---|--8------8-7------7---|--10------10---10--------(10)------|
E|----------------------|----------------------|----------------------|-----------------------------------|

  5                      6                      7                      8
e|----------------------|----------------------|----------------------|------------------------|
B|----------------------|----------------------|----------------------|------------------------|
G|------7--------5------|------3--------2------|------3--------2------|------0---0--0----------|
D|----8---8-8--7---7-7--|----5---5-5--3---3-3--|----5---5-5--3---3-3--|----2----2--2--(2)-(2)--|
A|--8------8-7------7---|--5------5-3------3---|--5------5-3------3---|--3-----3--3-----(3)----|
E|----------------------|----------------------|----------------------|------------------------|

  9                      10                     11                     12
e|----------------------|----------------------|----------------------|-----------------------------------|
B|----------------------|----------------------|----------------------|-----------------------------------|
G|------7--------5------|------3--------2------|------7--------5------|--------9-----9----9---------------|
D|----8---8-8--7---7-7--|----5---5-5--3---3-3--|----8---8-8--7---7-7--|-----10-----10---10--(10)----(10)--|
A|--8------8-7------7---|--5------5-3------3---|--8------8-7------7---|--10------10---10--------(10)------|
E|----------------------|----------------------|----------------------|-----------------------------------|

  13                     14                     15                     16
e|----------------------|----------------------|----------------------|------------------------|
B|----------------------|----------------------|----------------------|------------------------|
G|------7--------5------|------3--------2------|------3--------2------|------0---0--0----------|
D|----8---8-8--7---7-7--|----5---5-5--3---3-3--|----5---5-5--3---3-3--|----2----2--2--(2)-(2)--|
A|--8------8-7------7---|--5------5-3------3---|--5------5-3------3---|--3-----3--3-----(3)----|
E|----------------------|----------------------|----------------------|------------------------|


[Chorus]

e|--------------------|--------------------|-------------------|-------------------|
B|--------------------|--------------------|-------------------|-------------------|
G|--------------------|--------------------|-------------------|-------------------|
D|--------------------|--------------------|-------------------|-------------------|
A|--------------------|--------------------|-------------------|-------------------|
E|--1///--------------|--/10///------------|--\6///---\5///----|--/8///------------|

e|--------------------|--------------------|-------------------|-------------------|
B|--------------------|--------------------|-------------------|-------------------|
G|--------------------|--------------------|-------------------|-------------------|
D|--------------------|--------------------|-------------------|-------------------|
A|--------------------|--------------------|-------------------|-------------------|
E|--/10//-------------|--\3///-------------|--/6///---/8///----|--\1///------------|

e|--------------------|--------------------|-------------------|-------------------|
B|--------------------|--------------------|-------------------|-------------------|
G|--------------------|--------------------|-------------------|-------------------|
D|--------------------|--------------------|-------------------|-------------------|
A|--------------------|--------------------|-------------------|-------------------|
E|--1///--------------|--/10///------------|--\6///---\5///----|--/8///------------|

e|--------------------|--------------------|-------------------|-------------------|
B|--------------------|--------------------|-------------------|-------------------|
G|--------------------|--------------------|-------------------|-------------------|
D|--------------------|--------------------|-------------------|-------------------|
A|--------------------|--------------------|-------------------|-------------------|
E|--/10//-------------|--\3///-------------|--/6///---/8///----|--\1///------------|


[Outro]

e|--------------------|--------------------|-------------------|--------------------|
B|--1-----------------|--3-----------------|--3-------1--------|--5-----------------|
G|--2-----------------|--------------------|-------------------|--------------------|
D|--3-----------------|--3-----------------|--3-------2--------|--5-----------------|
A|--------------------|--5-----------------|--1-------0--------|--3-----------------|
E|--------------------|--------------------|-------------------|--------------------|

e|--------------------|--------------------|-------------------|--1-----------------|
B|--6-----------------|--8-----------------|--3-------5--------|--------------------|
G|--------------------|--------------------|-------------------|--2-----------------|
D|--7-----------------|--8-----------------|--3-------5--------|--3-----------------|
A|--5-----------------|--10----------------|--1-------3--------|--------------------|
E|--------------------|--------------------|-------------------|--------------------|



************************************

| (n)  Ghost note
| /    Slide up
| \    Slide down

************************************
Suggest correction
Creating personal tab
Creating personal tab
You can edit any tab online and save it as your Personal.

You can edit, replace or remove any tab part or add personal notes – all changes will be seen only by you.

Personal tabs can be accessed anytime from any device, even offline.
Learn more »
Give kudos to tab author, rate the tab!
1 2 3 4 5
comments
print report bad tab
guest
Wanna post a correction for this tab? Suggest correction