Oops, an error
Loading. Please wait.

Sonnenuntergänge chords

version 2
version 2

Whole song

155 views 6 this week
no commentswrite comment
1 2 3 4 5
2 more votes to show rating
add to favorites
×
Save as Personal and add changes to this tab that will be seen only by you. Learn more ›
×
You can save this tab as Personal to edit and correct it or add notes. All changes will be seen only by you. Learn more »
launch autoscroll
font size
0
reset
transpose
0
reset
simplify chords
display chords
guitar tuner
edit
Autoscroll
slow
fast
+/-
esc
set tempo
stop
Strumming
There is no strumming pattern for this song yet. and get +5 IQ
[Intro]

e|-----3----------|---2----5--2----|-----0-------3--|-----3----3-----|
B|---0--0-0--1--3-|--3---3--3--3-3-|---1--1----4--4-|---0--0-1----1--|
G|--0----0-0--0--0|-2---2-2--2--2-2|--2----2--5----5|--0----0------0-|
D|-0--0-----0--0--|0---0-----------|-2--2----5--5---|-0--0----------0|
A|----------------|----------------|0-------3-------|----------------|
E|3---------------|----------------|----------------|3---------------|


[Verse]

e|:-----3-------3--|---2----5--2----|-----0-------3--|-----3----3-----:|
B|:---0--0----0--0-|--3---3--3--3-3-|---1--1----4--4-|---0--0-1----1--:|
G|:--0----0--0----0|-2---2-2--2--2-2|--2----2--5----5|--0----0------0-:|
D|:-0--0----0--0---|0---0-----------|-2--2----5--5---|-0--0----------0:|
A|:----------------|----------------|0-------3-------|----------------:|
E|:3-------3-------|----------------|----------------|3---------------:|


[Chorus]

e|---0---0---0---0|-----0----------|-----3-------3--|-----3----3-----|
B|--0---0---0---0-|---1--1----1---0|---4--4----4--4-|---0--0-1----1--|
G|-0---0---0---0--|--2----2--2---0-|--5----5--5----5|--0----0------0-|
D|2---1---0-------|-2--2----2---0--|-5--5----5--5---|-0--0----------0|
A|------------4---|0-------0---2---|3-------3-------|----------------|
E|----------------|----------------|----------------|3---------------|

e|-----3-------3--|---2----5--2----|-----0-------3--|
B|---0--0----0--0-|--3---3--3--3-3-|---1--1----4--4-|
G|--0----0--0----0|-2---2-2--2--2-2|--2----2--5----5|
D|-0--0----0--0---|0---0-----------|-2--2----5--5---|
A|----------------|----------------|0-------3-------|
E|3-------3-------|----------------|----------------|

e|-----3----------|---2----5--2----|-----0-------3--|-----3----3-----|
B|---0--0-0--1--3-|--3---3--3--3-3-|---1--1----4--4-|---0--0-0----1--|
G|--0----0-0--0--0|-2---2-2--2--2-2|--2----2--5----5|--0----0------0-|
D|-0--0-----0--0--|0---0-----------|-2--2----5--5---|-0--0----------0|
A|----------------|----------------|0-------3-------|----------------|
E|3---------------|----------------|----------------|3---------------|


[Verse 1]

    G                                       D
ich mecht mit dir dorthin gehen wo d' sun daham is
  Am              Cm         G        G4 G
damit's uns unser kältn aussabrennt
                                  D
dort wo der himmel wir a schwarer samt is
Am                Cm             G        G4 G
soll ma passieren was i versamen kennt.


[Chorus 1]

  Em       Em/D#  Em/D     Em/C# Am        Am/H
i zähl auf deiner haut die wassertropfen
   Cm                              G     G4 G
du schenkst ma dann dafür a lachen ein
                               D
mir könnten mitanand ins leben hupfen
    Am           Cm                 G    D  Am  Cm   G  G4  G
und endlich amoi selbstverständlich sein


[Verse 2]

                                    D
der einsamkeit mecht i in'd goschn' tretn'
     Am           Cm                   G      G4 G
dass endlich amoi g'spirt was weh tuan kann
                                D
und nebensächlichkeiten mecht i reden
Am             Cm                 G      G4 G
du hörst ma zu als ob sie wichtig warn'


[Chorus 2]

  Em        Em/D#   Em/D   Em/C#    Am       Am/H
i mecht mit dir auf weißen Stränden tanz'n
    Cm                             G      G4 G
und horchen wia des blut in dir pulsiert
                                        D
und lauter klane schwarze rosen möcht i pflanzn'
Am            Cm            G    D  Am  Cm   G  G4  G
ane für jeden tag an dem di g'friert


[Chorus 3]

  Em       Em/D# Em/D Em/C# Am       Am/H
i mecht da sonnenuntergänge schenk'n
   Cm                       G       G4 G
so rot dass da die augen übagehn'
                                 D
und dann mit dir in ana nacht versinken
          Am           Cm            G    D  Am  Cm   G
in der ma alles g'spihrn und nix verstehn.

 Last chord (G):
e|----------------3---------------|
B|------0-1\3/1-0-0---------------|
G|----0-----------0---------------|
D|--0-----2\4/2-0-0---------------|
A|----------------2---------------|
E|3---------------3---------------|



************************************

| /  Slide up
| \  Slide down 

************************************

            
            
Suggest correction
Creating personal tab
Creating personal tab
You can edit any tab online and save it as your Personal.

You can edit, replace or remove any tab part or add personal notes – all changes will be seen only by you.

Personal tabs can be accessed anytime from any device, even offline.
Learn more »
Give kudos to tab author, rate the tab!
1 2 3 4 5
comments
print report bad tab
guest
You may want to rate the tab now too:
select rating
Wanna post a correction for this tab? Suggest correction