Oops, an error
Loading. Please wait.

Feeling Good tab

version 3
version 3

Whole song

Interactive

427 views 3 this week
no commentswrite comment
1 2 3 4 5
2 more votes to show rating
add to favorites
×
Save as Personal and add changes to this tab that will be seen only by you. Learn more ›
×
You can save this tab as Personal to edit and correct it or add notes. All changes will be seen only by you. Learn more »
launch autoscroll
font size
0
reset
how to read this tab
guitar tuner
edit
Autoscroll
slow
fast
+/-
esc
set tempo
stop
Author
Difficulty
Based this tab off of this video https://www.youtube.com/watch?v=m5JAB44r8FU by jesse miles, so look there if
you need help with the strumming and rhythm. I'm just putting the base chords that he uses not all of the 
fancy stuff that he likes to do. This is a fun song to improvise on and so I hope it helps out a few people!

"Birds flying....
e|----x---------|---x----------|---x----------|--x-----------|
B|----7---------|---7----------|---7----------|--6-----------|
G|----8---------|---6----------|---8----------|--7-----------|
D|----8---------|---8----------|---8----------|--6-----------|
A|----6---------|---x----------|---x----------|--x-----------|
E|----x---------|---9----------|---8----------|--6-----------|

Sun in the sky...
e|----x---------|---x----------|---x----------|--x-----------|
B|----7---------|---7----------|---7----------|--6-----------|
G|----8---------|---6----------|---8----------|--7-----------|
D|----8---------|---8----------|---7----------|--6-----------|
A|----6---------|---x----------|---x----------|--x-----------|
E|----x---------|---9----------|---7----------|--6-----------|

Breeze driftin....
e|----x---------|---x----------|---x----------|--x-----------|
B|----7---------|---7----------|---7----------|--7-----------|
G|----8---------|---6----------|---8----------|--8-----------|
D|----8---------|---8----------|---8----------|--8-----------|
A|----6---------|---x----------|---x----------|--x-----------|
E|----x---------|---9----------|---8----------|--7-----------|

It's a new dawn    It's a new day   It's a new life   For me
e|-------------x--|--------------x-|---------------x-|------x-------|
B|-------------x--|--------------x-|---------------9-|------6-------|
G|-------------8--|--------------4-|---------------8-|------7-------|
D|-------------11-|--------------8-|---------------9-|------6-------|
A|-------------9--|--------------6-|---------------8-|------x-------|
E|-------------7--|--------------4-|---------------x-|------6-------|

[start strumming chords]


[Instrumental]

e|-------x--------|----x-----------|----x------------|-----x----------|
B|-------7--------|----7-----------|----7------------|-----6----------|
G|-------8--------|----6-----------|----8------------|-----7----------|
D|-------8--------|----8-----------|----7------------|-----6----------|   
A|-------6--------|----x-----------|----x------------|-----x----------|
E|-------x--------|----9-----------|----7------------|-----6----------|(x2)

"Fish in the sea.....
e|-------x--------|----x-----------|----x------------|-----x----------|
B|-------7--------|----7-----------|----7------------|-----6----------|
G|-------8--------|----6-----------|----8------------|-----7----------|
D|-------8--------|----8-----------|----7------------|-----6----------|
A|-------6--------|----x-----------|----x------------|-----x----------|
E|-------x--------|----9-----------|----7------------|-----6----------|

River running free.....
e|-------x--------|----x-----------|----x------------|-----x----------|
B|-------7--------|----7-----------|----7------------|-----6----------|
G|-------8--------|----6-----------|----8------------|-----7----------|
D|-------8--------|----8-----------|----7------------|-----6----------|
A|-------6--------|----x-----------|----x------------|-----x----------|
E|-------x--------|----9-----------|----7------------|-----6----------|

Blossom on a tree....
e|-------x--------|----x-----------|----x------------|-----x----------|
B|-------7--------|----7-----------|----7------------|-----7----------|
G|-------8--------|----6-----------|----8------------|-----8----------|
D|-------8--------|----8-----------|----8------------|-----8----------|
A|-------6--------|----x-----------|----x------------|-----x----------|
E|-------x--------|----9-----------|----8------------|-----7----------|

It's a new dawn    It's a new day   It's a new life        For me..
e|-----x----------|-------x--------|-------x---------|-x------------x--|
B|-----7----------|-------4--------|-------2---------|-6------------4--|
G|-----8----------|-------4--------|-------3---------|-7------------4--|
D|-----8----------|-------4--------|-------3---------|-6------------4--|
A|-----x----------|-------x--------|-------x---------|-x------------x--|
E|-----6----------|-------4--------|-------2---------|-6------------4--|

              and i'm feeling good
e|-x--------------|--x-------------|---x-------------|--x-------------|---x------------|
B|-6--------------|--7-------------|---7-------------|--7-------------|---7------------|
G|-7--------------|--8-------------|---6-------------|--6-------------|---6------------|
D|-6--------------|--8-------------|---9-------------|--10------------|---9------------|
A|-x--------------|--6-------------|---6-------------|--6-------------|---6------------|
E|-6--------------|--x-------------|---x-------------|--x-------------|---x------------|

Dragonfly out........
e|-------x--------|----x-----------|----x------------|-----x----------|
B|-------7--------|----7-----------|----7------------|-----6----------|
G|-------8--------|----6-----------|----8------------|-----7----------|
D|-------8--------|----8-----------|----7------------|-----6----------|
A|-------6--------|----x-----------|----x------------|-----x----------|
E|-------x--------|----9-----------|----7------------|-----6----------|

Butterflies all....
e|-------x--------|----x-----------|----x------------|-----x----------|
B|-------7--------|----7-----------|----7------------|-----6----------|
G|-------8--------|----6-----------|----8------------|-----7----------|
D|-------8--------|----8-----------|----7------------|-----6----------|
A|-------6--------|----x-----------|----x------------|-----x----------|
E|-------x--------|----9-----------|----7------------|-----6----------|

Sleep in peace...
e|--x------------------|-x--------------|--x--------------|
B|--2----------2----2--|-4--------------|--4--------------|
G|--3------------------|-3--------------|--5--------------|
D|--3------------------|-4--------------|--4--------------|
A|--x-------6---6-4---4|-3--------------|--x--------------|
E|--2------------------|-x--------------|--4--------------|

and this old world is a new world and a bold world                  For me
e|-------x--------|-----x----------|----x------------|---x------------|
B|-------2--------|-----4----------|----7------------|---6------------|
G|-------3--------|-----4----------|----8------------|---7------------|
D|-------3--------|-----4----------|----7------------|---6------------|
A|-------x--------|-----x----------|----x------------|---x------------|
E|-------2--------|-----4----------|----7------------|---6------------|

Instrumental (voice ad lib.)
e|-------x--------|----x-----------|----x------------|-----x----------|
B|-------7--------|----7-----------|----7------------|-----6----------|
G|-------8--------|----6-----------|----8------------|-----7----------|
D|-------8--------|----8-----------|----7------------|-----6----------|    
A|-------6--------|----x-----------|----x------------|-----x----------|
E|-------x--------|----9-----------|----7------------|-----6----------|(x2)

e|-----x----------|----x-----------|---x-------------|---x------------|
B|-----8----------|----8-----------|---8-------------|---7------------|
G|-----9----------|----7-----------|---9-------------|---8------------|
D|-----9----------|----9-----------|---8-------------|---7------------|    
A|-----7----------|----x-----------|---x-------------|---x------------|
E|-----x----------|----10----------|---8-------------|---7------------|(x2)

e|---x------------|--x-------------|---x-------------|--x-------------|
B|---8------------|--8-------------|---8-------------|--8-------------|
G|---9------------|--7-------------|---9-------------|--9-------------|
D|---9------------|--9-------------|---9-------------|--9-------------|
A|---7------------|--x-------------|---x-------------|--x-------------|
E|---x------------|--10------------|---9-------------|--8-------------|

e|--x-------------|--x-------------|--x--------------|---------------|
B|--8-------------|--8-------------|--2--------------|---------------|
G|--9-------------|--9-------------|--3--------------|---------------|
D|--9-------------|--9-------------|--2--------------|---------------|
A|--x-------------|--0-------------|--x------------1-|-2-3-4-5-6-7---|
E|--7-------------|--x-------------|--2--------------|---------------|

Stars when you....
e|--x-------------|--x-------------|--x--------------|----x-----------|
B|--9-------------|--9-------------|--9--------------|----8-----------|
G|--10------------|--8-------------|--10-------------|----9-----------|
D|--10------------|--10------------|--9--------------|----8-----------|
A|--8-------------|--x-------------|--x--------------|----x-----------|
E|--x-------------|--11------------|--9--------------|----8-----------|

Scent of the pine...
e|--x-------------|--x-------------|--x--------------|----x-----------|
B|--9-------------|--9-------------|--9--------------|----8-----------|
G|--10------------|--8-------------|--10-------------|----9-----------|
D|--10------------|--10------------|--9--------------|----8-----------|
A|--8-------------|--x-------------|--x--------------|----x-----------|
E|--x-------------|--11------------|--9--------------|----8-----------|

Freedom is mine...
e|--x-------------|--x-------------|--x--------------|----x-----------|
B|--9-------------|--9-------------|--9--------------|----9-----------|
G|--10------------|--8-------------|--10-------------|----10----------|
D|--10------------|--10------------|--10-------------|----10----------|
A|--8-------------|--x-------------|--x--------------|----x-----------|
E|--x-------------|--11------------|--10-------------|----9-----------|

It's a new dawn    It's a new day   It's a new life
e|--x-------------|--x-------------|--x--------------|----x-----------|
B|--9-------------|--9-------------|--9--------------|----9-----------|
G|--10------------|--8-------------|--10-------------|----10----------|
D|--10------------|--10------------|--10-------------|----10----------|
A|--8-------------|--x-------------|--x--------------|----x-----------|
E|--x-------------|--11------------|--10-------------|----9-----------|

It's a new dawn    It's a new day   It's a new life
e|------x---------|-------x--------|--------x--------|-----x----------|
B|------9---------|-------6--------|--------4--------|-----8----------|
G|------10--------|-------6--------|--------5--------|-----9----------|
D|------10--------|-------6--------|--------5--------|-----8----------|
A|------x---------|-------x--------|--------x--------|-----x----------|
E|------8---------|-------6--------|--------4--------|-----8----------|

It's a new dawn    It's a new day   It's a new life   For me
e|--x-------------|--x-------------|--x--------------|----x--------x---|
B|--9-------------|--9-------------|--9--------------|----6--------8---|
G|--10------------|--8-------------|--10-------------|----6--------9---|
D|--10------------|--10------------|--10-------------|----6--------8---|
A|--8-------------|--x-------------|--x--------------|----x--------11--|
E|--x-------------|--11------------|--10-------------|----6----6-7-8---|


e|--x-------------|--x-------------|--x--------------|----x-----------|
B|--9-------------|--9-------------|--9--------------|----8-----------|
G|--10------------|--8-------------|--10-------------|----9-----------|
D|--10------------|--10------------|--9--------------|----8-----------|
A|--8-------------|--x-------------|--x--------------|----x-----------|
E|--x-------------|--11------------|--9--------------|----8-----------|

Repeat as much as you want



************************************

| x  Dead note

************************************

            
            
Suggest correction
Creating personal tab
Creating personal tab
You can edit any tab online and save it as your Personal.

You can edit, replace or remove any tab part or add personal notes – all changes will be seen only by you.

Personal tabs can be accessed anytime from any device, even offline.
Learn more »
Give kudos to tab author, rate the tab!
1 2 3 4 5
comments
print report bad tab
guest
You may want to rate the tab now too:
select rating
Wanna post a correction for this tab? Suggest correction