Oops, an error
Loading. Please wait.

Stjarnfallet Tab

64 views 1 this week
no commentswrite comment
1 2 3 4 5
3 more votes to show rating
add to favorites
launch autoscroll
font size
0
reset
how to read this tab
guitar tuner
Autoscroll
slow
fast
+/-
esc
set tempo
stop
Help us to improve Ultimate-Guitar.com Take our survey!
×
Author
Difficulty
novice
[Intro]

   G                      Bm        Em        C         D/F#      G             D
e|-3---3-----|-2--2-----|---------|---------|---------|---------|-------------|----------|
B|-3-----3---|------3---|---3-----|---------|---3-----|---3-----|--3---3---3--|-3-3------|
G|-0-0-----0-|-0------0-|-----4---|---------|-----0---|-----2---|---0---0---0-|-2---2----|
D|-----------|----------|-------4-|---------|-------2-|-------0-|-------------|-0-----0--|
A|-----------|----------|-2-------|-9-10-12-|-3-------|---------|-----0---2---|----------|
E|-----------|----------|---------|-0-0--0--|---------|-2-------|-3-----------|----------|


[Verse 1]

   Stjär-      -nor-      -na       lyser väl lika      klart i   din del av  stan?
e|-3---3-----|-2--2-----|---------|---------|---------|---------|-----------|----------|
B|-3-----3---|------3---|---3-----|---------|---3-----|---3-----|-3---------|-3-3------|
G|-0-0-----0-|-0------0-|-----4---|---------|-----0---|-----2---|-0---------|-2---2----|
D|-----------|----------|-------4-|---------|-------2-|-------0-|-----------|-0-----0--|
A|-----------|----------|-2-------|-9-10-12-|-3-------|---------|-----0---2-|----------|
E|-----------|----------|---------|-0-0--0--|---------|-2-------|-3---------|----------|

   Står        du som     jag,      på din balkong och  vilar  i  kaoset som  var?
e|-3---3-----|-2--2-----|---------|---------|---------|---------|-----------|----------|
B|-3-----3---|------3---|---3-----|---------|---3-----|---3-----|-3---------|-3-3------|
G|-0-0-----0-|-0------0-|-----4---|---------|-----0---|-----2---|-0---------|-2---2----|
D|-----------|----------|-------4-|---------|-------2-|-------0-|-----------|-0-----0--|
A|-----------|----------|-2-------|-9-10-12-|-3-------|---------|-----0---2-|----------|
E|-----------|----------|---------|-0-0--0--|---------|-2-------|-3---------|----------|


[Pre-Chorus]

   Hallå! Är du där?  Hallå?           Hallå! Finns det nånting      kvar?
e|-----------|-----------|-----------|--------|----------|---------|---------|-3-2----|
B|---1-------|---3-------|-----3-----|--------|----1-----|---0-----|---3-----|-----3--|
G|-----0---0-|-----0---0-|-------0---|--------|------0---|-----0---|-----2---|--------|
D|-------2---|-------4---|---------0-|--------|--------2-|-------0-|-0-----0-|-0------|
A|-3---------|-5---------|-----------|---0-2--|-3--------|---------|---------|--------|
E|-----------|-----------|-3-3-------|-3------|----------|-3-------|---------|--------|


[Chorus 1]

   Stjärnfall,             stjärnfallet  är jag    Och du är himlen jag föll från den dagen
e|-----------|-----------|-----------|-----------|-----------|-----------|---------|-----------|
B|-1--1------|-----3-----|-3---3-----|-----3-----|-----1-----|-----3-----|-0--0--0-|-3---3-----|
G|-0----0----|-------0---|-0---0-----|-----0-----|-------0---|-------0---|-0--0--0-|-0-----0---|
D|-2------2--|---4-----4-|-0-------0-|---2---2---|---2-----2-|---4-----4-|-5--5--5-|-4-------4-|
A|-3---------|-5---------|-----------|-----------|-3---------|-5---------|-7--7--7-|-5-5-------|
E|-----------|-----------|-3-3---2---|-0-------0-|-----------|-----------|-0--0--0-|-----------|

   Stjärnfall,             stjärnfallet är jag     Och du är himlen för mig varje dag
e|-----------|-----------|-----------|-----------|-----------|-----------|---------|
B|-1--1------|-----3-----|-3---3-----|-----3-----|-----1-----|-----3-----|-1-------|
G|-0----0----|-------0---|-0---0-----|-----0-----|-------0---|-------0---|-0-------|
D|-2------2--|---4-----4-|-0-------0-|---2---2---|---2-----2-|---4-----4-|-2-------| Gå direkt till mellanspel
A|-3---------|-5---------|-----------|-----------|-3---------|-5---------|-3--2--0-| 
E|-----------|-----------|-3-3---2---|-0-------0-|-----------|-----------|---------|



[Interlude] (Som introt)

   G                      Bm        Em        C         D/F#      G             D
e|-3---3-----|-2--2-----|---------|---------|---------|---------|-------------|----------|
B|-3-----3---|------3---|---3-----|---------|---3-----|---3-----|--3---3---3--|-3-3------|
G|-0-0-----0-|-0------0-|-----4---|---------|-----0---|-----2---|---0---0---0-|-2---2----|
D|-----------|----------|-------4-|---------|-------2-|-------0-|-------------|-0-----0--|
A|-----------|----------|-2-------|-9-10-12-|-3-------|---------|-----0---2---|----------|
E|-----------|----------|---------|-0-0--0--|---------|-2-------|-3-----------|----------|


[Verse 2]

   Trött       som        döden,     vinterns korta     dar är    långa   i   år
e|-3---3-----|-2--2-----|---------|---------|---------|---------|-----------|----------|
B|-3-----3---|------3---|---3-----|---------|---3-----|---3-----|-3---------|-3-3------|
G|-0-0-----0-|-0------0-|-----4---|---------|-----0---|-----2---|-0---------|-2---2----|
D|-----------|----------|-------4-|---------|-------2-|-------0-|-----------|-0-----0--|
A|-----------|----------|-2-------|-9-10-12-|-3-------|---------|-----0---2-|----------|
E|-----------|----------|---------|-0-0--0--|---------|-2-------|-3---------|----------|

   Dandy              och Dandy,    ring inte, skriv inte, lås inne ivern i dig
e|-3---3-----|-2--2-----|---------|---------|---------|---------|-----------|----------|
B|-3-----3---|------3---|---3-----|---------|---3-----|---3-----|-3---------|-3-3------|
G|-0-0-----0-|-0------0-|-----4---|---------|-----0---|-----2---|-0---------|-2---2----|
D|-----------|----------|-------4-|---------|-------2-|-------0-|-----------|-0-----0--|
A|-----------|----------|-2-------|-9-10-12-|-3-------|---------|-----0---2-|----------|
E|-----------|----------|---------|-0-0--0--|---------|-2-------|-3---------|----------|



[Pre-Chorus]

   Hallå! Är du där?  Är du kvar?      Hallå! Finns det nånting      kvar?
e|-----------|-----------|-----------|--------|----------|---------|---------|-3-2----|
B|---1-------|---3-------|-----3-----|--------|----1-----|---0-----|---3-----|-----3--|
G|-----0---0-|-----0---0-|-------0---|--------|------0---|-----0---|-----2---|--------|
D|-------2---|-------4---|---------0-|--------|--------2-|-------0-|-0-----0-|-0------|
A|-3---------|-5---------|-----------|---0-2--|-3--------|---------|---------|--------|
E|-----------|-----------|-3-3-------|-3------|----------|-3-------|---------|--------|


[Chorus 2]

   Stjärnfall,             stjärnfallet  är jag    Och du är himlen jag föll från den dagen
e|-----------|-----------|-----------|-----------|-----------|-----------|---------|-----------|
B|-1--1------|-----3-----|-3---3-----|-----3-----|-----1-----|-----3-----|-0--0--0-|-3---3-----|
G|-0----0----|-------0---|-0---0-----|-----0-----|-------0---|-------0---|-0--0--0-|-0-----0---|
D|-2------2--|---4-----4-|-0-------0-|---2---2---|---2-----2-|---4-----4-|-5--5--5-|-4-------4-|
A|-3---------|-5---------|-----------|-----------|-3---------|-5---------|-7--7--7-|-5-5-------|
E|-----------|-----------|-3-3---2---|-0-------0-|-----------|-----------|-0--0--0-|-----------|

   Stjärnfall,             stjärnfallet  är jag    Och du är himlen jag föll från   idag
e|-----------|-----------|-----------|-----------|-----------|-----------|---------|-----------|
B|-1--1------|-----3-----|-3---3-----|-----3-----|-----1-----|-----3-----|-0--0--0-|-3---3-----|
G|-0----0----|-------0---|-0---0-----|-----0-----|-------0---|-------0---|-0--0--0-|-0-----0---|
D|-2------2--|---4-----4-|-0-------0-|---2---2---|---2-----2-|---4-----4-|-5--5--5-|-4-------4-|
A|-3---------|-5---------|-----------|-----------|-3---------|-5---------|-7--7--7-|-5-5-------|
E|-----------|-----------|-3-3---2---|-0-------0-|-----------|-----------|-0--0--0-|-----------|

   Stjärnfall,             stjärnfallet är jag     Och du är himlen för mig varje    dag
e|-----------|-----------|-----------|-----------|-----------|-----------|---------|------3----|     
B|-1--1------|-----3-----|-3---3-----|-----3-----|-----1-----|-----3-----|-1-------|-----3-----|
G|-0----0----|-------0---|-0---0-----|-----0-----|-------0---|-------0---|-0-------|----0------| 
D|-2------2--|---4-----4-|-0-------0-|---2---2---|---2-----2-|---4-----4-|-2-------|---0-------| 
A|-3---------|-5---------|-----------|-----------|-3---------|-5---------|-3--2--0-|--2--------|
E|-----------|-----------|-3-3---2---|-0-------0-|-----------|-----------|---------|-3---------|  
Suggest correction
Give kudos to tab author, rate the tab!
1 2 3 4 5
comments
print report bad tab
guest
You may want to rate the tab now too:
select rating
Wanna post a correction for this tab? Suggest correction