Oops, an error
Loading. Please wait.

Kevlarsjäl Chords

by Kent
115 views 12 this week
no commentswrite comment
1 2 3 4 5
3 more votes to show rating
add to favorites
launch autoscroll
font size
0
reset
transpose
0
reset
display chords
guitar tuner
Autoscroll
slow
fast
+/-
esc
set tempo
stop
Help us to improve Ultimate-Guitar.com Take our survey!
×
Author
Difficulty
[Intro] 
|E  B   |A  C#m   | 4x

Akustisk gitarr:
e|-----------------------------------|
B|-----------------------------------|
G|-----------------------------------|
D|---2---1-----------2---1-------2---|
A|-----------4---4-----------4-------|
E|-----------------------------------|

Elgitarr:
e|--12--11----------12--14-----------|
B|----------14--------------14-------| 
G|--------------13--------------13---|
D|-----------------------------------|
A|-----------------------------------|
E|-----------------------------------|


[Vers]

Akustisk gitarr:
e|-------------------------------------------|
B|-------------------------------------------|
G|-------------------------------------------|
D|-------------------------------------------|
A|---4----1----0---------4---------0---------|
E|------------------2---------0---------4----|

e|-------------------------------------------|
B|-------------------------------------------|
G|-------------------------------------------|
D|-------------------------------------------|
A|---4----1----0---------4----2----0---------|
E|------------------2-------------------2----|


Elgitarr:
e|--12--------------------------------------------|
B|--------9-------------------9-------------------|
G|-------------9---------9---------9---8--8-9-11--|
D|-----------------11-----------------------------|
A|------------------------------------------------|
E|------------------------------------------------|

e|--------------------------------------------|
B|--------9-------------------9---------------|
G|---9---------9---------9---------9----------|
D|-----------------11-------------------------|
A|--------------------------------------------|
E|--------------------------------------------|


[Vers]
N.C
  Sommartid  
  
  Jag är tystnaden och vinden 
  
  Mitt land är ditt land, allt är fritt 

  Sommartid 
                                       A
  Jag är lyssnaren, som tårar mot din kind
F#m 
  Min dröm är din... 


[Chorus]
E           C#m          G#m
  Så länge hjärtat mitt slår 
      A             E   
  så minns jag dig när 
               G#m        A
  du stack ett hål i min kevlarsjäl 
E         C#m         G#m
  Och så blev du mitt sår 
            A       E
  och jag blöder ihjäl 
              G#m        A
  Kom gör ett hål i min kevlarsjäl


|E  B   |A  C#m   | 2x


[Vers]
N.C 
  Sommartid  
  
  var är hjärnan, här är våldet 
  
  Mitt land är mitt land, bara mitt  

  Sommartid
  
  i Socialstyrelsens folder
            A     F#m
  är allt svart & vitt  
  
  Din dröm är min... 


[Chorus]
E           C#m          G#m
  Så länge hjärtat mitt slår 
      A             E   
  så minns jag dig när 
               G#m        A
  du stack ett hål i min kevlarsjäl 
E         C#m         G#m
  Och så blev du mitt sår 
            A       E
  och jag blöder ihjäl 
              G#m        A
  Kom gör ett hål i min kevlarsjäl


[Bridge]
  |C#m   |E     |C#m   |E     |
  |C#m   |A     |F#m   |


[Chorus]
E           C#m          G#m
  Så länge hjärtat mitt slår 
      A             E   
  så minns jag dig när 
               G#m        A                       E
  du stack ett hål i min kevlarsjäl (Min dröm är din nu)
          C#m         G#m
  Och så blev du mitt sår 
            A       E
  och jag blöder ihjäl 
              G#m        A                       E
  Kom gör ett hål i min kevlarsjäl (Din dröm är min nu)


[Chorus]
            C#m          G#m
  Så länge hjärtat mitt slår 
      A             E   
  så minns jag dig när 
               G#m        A                       E
  du stack ett hål i min kevlarsjäl (Min dröm är din nu)
          C#m         G#m
  Och så blev du mitt sår 
            A       E
  och jag blöder ihjäl 
              G#m        A
  Kom gör ett hål i min kevlarsjäl


[Outro]
|E  B   |A  C#m   | 2x
(tab som intro)
Suggest correction
Give kudos to tab author, rate the tab!
1 2 3 4 5
comments
print report bad tab
guest
You may want to rate the tab now too:
select rating
Wanna post a correction for this tab? Suggest correction