Oops, an error
Loading. Please wait.

Matalii Ja Mustii Bass Tab

22 views 1 this week
no commentswrite comment
1 2 3 4 5
3 more votes to show rating
add to favorites
launch autoscroll
font size
0
reset
guitar tuner
Autoscroll
slow
fast
+/-
esc
set tempo
stop
Help us to improve Ultimate-Guitar.com Take our survey!
×
Author
Difficulty
advanced
About this tab version
Based off of the studio version. Was this info helpful? Yes No
[Part 1] (0:00 - 0:13) No bass

[Part 2] (0:13 - 0:47) 
G|-------------------------------------------------------------------------------------------------|
D|---------------------------------------5-5-----5-5---------------5---------------5-4-2-----------|
A|---5-5-----5-5-----5-5-2-----5-5---5-5-----5-5-----5-5-2-----5-5-------5---5-5-------------4-5---|
E|-3-----3-3-----3-3-------5-5-----3-----------------------5-5-------3-3---3-----3-------0-5-----5-|

G|-----------------------------------------------------------------|
D|-----------------------------------------------------------------|
A|-3---3---3---3-----3---3---3-----3---3---3---3-----3---3---3-----|
E|---3---3---3---3-3---3---3---3-3---3---3---3---3-3---3---3---3-5-|

[Part 3] (0:47 - 1:00)
G|-----------------------------------------------------------------|
D|-----------------------------------4-7-4-------------7-7-------4-|
A|-5-5-----5-5-----5-5-----5-5-----5-------5-5-----5-5-----5-5-----|
E|-----5-5-----5-5-----5-5-----5-5-------------5-5-------------5---|

[Part 4] (1:00 - 1:34) 
G|-------------------------------------------------------------------------------------------------|
D|-5---5---5-----5-5---------2---4-5-------------5-5-----5-------4-5---------------5-4-2---------7-|
A|---5---5---5-5-----5-5-2-----5---------5---5-5-----5-5-----4-5---------5-5---5-5-----------4-5---|
E|-------------------------5---------3-3---3---------------5---------3-3-----3-----------0-5-------|

G|-------------------------------------------------------------------------|
D|-------------------------------------------------------------------------|
A|-5~--------3~-----------3---3---3-----5~-------3~----------3---3---3-----|
E|----3~-0~------3~-3~--3---3---3---3-3----3~-0~-----3~-3~-3---3---3---3-3-|

[Part 5] (1:34 -1:48)
G|-----------------------------------5---5-5-5---------------------|
D|-----------------3-2-----------------------------3-2-------------|
A|-3~--3~--3~--3~------5-3-5-1-3-3-3---3-------3-3-----5-3-5-1-3-3-|
E|-----------------------------------------------------------------|

[Part 6] (1:48 - 2:01) 
G|-----------------------------------------------------------------|
D|-5-5-----5-5-----5-5-----5-5---4-5-------5-------5-5-----5-----4-|
A|-----5-5-----5-5-----5-5-----5---------5-------5-------5---5-5---|
E|-----------------------------------3-3-----3-3-------3-----------|

[Part 7] (2:01 - 2:35) 
G|-------------------------------------------------------------------------------------------------|
D|-5---5---5-----5-5-----5-----------------------------------4---4-5---5---5-------5-4-2-----------|
A|---5---5---5-5-----5-5-------5-2---5---5---2-5-2---5-5-2-----5-----5---5---5-5-------------4-5---|
E|-------------------------5-5-----3---3---3-------3-------5---------------------5-------0-5-----5-|

G|--------------------------------------------------------------------|
D|--------------------------------------------------------------------|
A|-3---3---3---3-----3---3---3-----5~-------3~----------3---3---3-----|
E|---3---3---3---3-3---3---3---3-3----3~-0~-----3~-3~-3---3---3---3-3-|

[Part 8] (2:35 - 2:54)
G|------------------------------------5---5~----5---------------------------------------|
D|-----------------3-2---------------------------------3-2-------------3-2--------------|
A|-3~--3~--3~--3~------5-3-5-1-3-3-3~--3~----3~--3~--3-----5-3-5-1-3-3-----5-3-5-1-3-3~-|
E|--------------------------------------------------------------------------------------|

************************************

| ~  Hold note

************************************
Suggest correction
Give kudos to tab author, rate the tab!
1 2 3 4 5
comments
print report bad tab
guest
You may want to rate the tab now too:
select rating
Wanna post a correction for this tab? Suggest correction