Oops, an error
Loading. Please wait.

Flea John Frusciante Omar Rodríguez-López - 2004 Jam Bass Tab

22 views 12 this week
no commentswrite comment
1 2 3 4 5
3 more votes to show rating
add to favorites
launch autoscroll
font size
0
reset
guitar tuner
Autoscroll
slow
fast
+/-
esc
set tempo
stop
Help us to improve Ultimate-Guitar.com Take our survey!
×
Author
Difficulty
intermediate
About this tab version
Wrote these tabs by ear listening to the jam, these are rough but fairly accurate. Was this info helpful? Yes No
[Intro :Flea, John Frusciante & Omar Rodríguez-López: 2004 Jam]


part 1 of the riff:

G|--16-------------14--14----9---12------------------------------------------|
D|--14--------16-------12---10---12------------------------------------------|
A|---------15------12------------10------------------------------------------|
E|---------------------------------------------------------------------------|

part 2 of the riff:

G|--16------------14--14-14---12---------------------------------------------|
D|--14-------16-------12-11---10---------------------------------------------|
A|---------15-----12---------------------------------------------------------|
E|---------------------------------------------------------------------------|





Suggest correction
Give kudos to tab author, rate the tab!
1 2 3 4 5
comments
print report bad tab
guest
You may want to rate the tab now too:
select rating
Wanna post a correction for this tab? Suggest correction