Oops, an error
Loading. Please wait.

Le Acciughe Fanno Il Pallone chords

745 views 24 this week
no commentswrite comment
1 2 3 4 5
2 more votes to show rating
add to favorites
×
Save as Personal and add changes to this tab that will be seen only by you. Learn more ›
×
You can save this tab as Personal to edit and correct it or add notes. All changes will be seen only by you. Learn more »
launch autoscroll
font size
0
reset
transpose
0
reset
simplify chords
display chords
guitar tuner
edit
Autoscroll
slow
fast
+/-
esc
set tempo
stop
About this tab version
Le acciughe fanno il pallone. Was this info helpful? Yes No
Strumming Is this strumming pattern correct? Yes No
Song 120 bpm
1
&
2
&
3
&
4
&
Listen
[Intro]

     Dm                Am                E7
e|---1--------1---------0--------0---------0--------0-----------|
B|------3--------3---------1--------1---------3--------3--------|
G|---------2--------2---------2--------2---------1--------1-----|
D|---0----------------------------------------------------------|
A|----------------------0------------------2--------------------|
E|--------------------------------------------------------------|

     Am                Dm6/F               Am
e|---0--------0-------------------------------------------------|
B|------1--------1------0--------0----------1--------1----------|
G|---------2--------2------2--------2----------2--------2-------|
D|----------------------------0--------0----------2--------2----|
A|---0--------------------------------------0-------------------|
E|----------------------1---------------------------------------|

     F                 E
e|--------------------------------------------------------------|
B|---1--------1---------0--------0------------------------------|
G|------2--------2---------1--------1---------------------------|
D|---------3--------3---------2--------2------------------------|
A|--------------------------------------------------------------|
E|---1------------------0---------------------------------------|

[Verse 1]

    Dm       Am       E7        Am       Dm6/F     Am
e|--1---------0---------0----------0----------------------------|
B|-----3---------1---------3----------1------0---------1--------|
G|--------2---------2---------1----------2------2---------2-----|
D|--0----------------------------------------------0---------2--|
A|------------0---------2----------0-------------------0--------|
E|-------------------------------------------1------------------|

    F        E       Dm       Am        E7       Am
e|----------------------1---------0---------0---------0---------|
B|--1---------0------------3---------1---------3---------1------|
G|-----2---------1------------2---------2---------1---------2---|
D|--------3---------2---0---------------------------------------|
A|--------------------------------0---------2---------0---------|
E|--1---------0-------------------------------------------------|

   Dm
Le acciughe fanno il pallone
    Am
che sotto c'è l'alalunga
   E7
se non butti la rete
    Am
non te ne lascia una

     Dm6/F
alla riva sbarcherò
     Am
alla riva verrà la gente
       F
questi pesci sorpresi
   E
li venderò per niente

   Dm
se sbarcherò alla foce
       Am
e alla foce non c'è nessuno
   E7
la faccia mi laverò
     Am
nell'acqua del torrente

[Chorus]

Dm
ogni tre ami
        Am
c'è una stella marina
E7
amo per amo
        Am
c'è una stella che trema
Dm6/F
ogni tre lacrime
E7         Am
batte la campana

[Verse 2]

    Dm                Am                E7
e|--1--------------1---0--------------0---0--------------0------|
B|-----3--------3---------1--------1---------3--------3---------|
G|--------2--2---------------2--2---------------1--1------------|
D|--0-----------------------------------------------------------|
A|---------------------0------------------2---------------------|
E|--------------------------------------------------------------|

    Am                Dm6/F              Am
e|--0--------------0--------------------------------------------|
B|-----1--------1------0--------------0---1--------------1------|
G|--------2--2------------2--------2---------2--------2---------|
D|---------------------------0--0---------------2--2------------|
A|--0-------------------------------------0---------------------|
E|---------------------1----------------------------------------|

    F                 E                 Dm
e|----------------------------------------1--------------1------|
B|--1--------------1---0--------------0------3--------3---------|
G|-----2--------2---------1--------1------------2--2------------|
D|--------3--3---------------2--2---------0---------------------|
A|--------------------------------------------------------------|
E|--1------------------0----------------------------------------|

    Am                E7                Am
e|--0--------------0---0--------------0---0--------------0------|
B|-----1--------1---------3--------3---------1--------1---------|
G|--------2--2---------------1--1---------------2--2------------|
D|--------------------------------------------------------------|
A|--0------------------2------------------0---------------------|
E|--------------------------------------------------------------|

   Dm
passano le villeggianti
    Am
con gli occhi di vetro scuro
   E7
passano sotto le reti
    Am
che asciugano sul muro

     Dm6/F
e in mare c'è una fortuna
     Am
che viene dall'oriente
       F
che tutti l'hanno vista
   E
e nessuno la prende

[Chorus]

Dm
ogni tre ami
        Am
c'è una stella marina
E7
ogni tre stelle
        Am
c'è un aereo che vola
Dm6/F
ogni tre notti
    E7           Am
un sogno che mi consola

[Instrumental Solo]

[Verse 3]
(play like verse 2)

Dm
bottiglia legata stretta
Am
come un'esca da trascinare
E7
sorso di vena dolce
Am
che liberi dal male

Dm6/F
se prendo il pesce d'oro
Am
ve la farò vedere
F
se prendo il pesce d'oro
E
mi sposerò all'altare

[Chorus]

Dm
ogni tre ami
         Am
c'è una stella marina
E7
ogni tre stelle
       Am
c'è un aereo che vola
Dm6/F             E7
ogni balcone una bocca
          Am
che m'innamora
Dm
ogni tre ami
         Am
c'è una stella marina
E7
ogni tre stelle
        Am
c'è un aereo che vola
Dm6/F             E7
ogni balcone una bocca
          Am
che m'innamora

[Instrumental Solo]

Dm
le acciughe fanno il pallone
Am
che sotto c'è l'alalunga
E7
se non butti la rete
Am
non te ne resta una
Am
non te ne lascia una
Am
non te ne lascia
Suggest correction
Creating personal tab
Creating personal tab
You can edit any tab online and save it as your Personal.

You can edit, replace or remove any tab part or add personal notes – all changes will be seen only by you.

Personal tabs can be accessed anytime from any device, even offline.
Learn more »
Give kudos to tab author, rate the tab!
1 2 3 4 5
comments
print report bad tab
guest
You may want to rate the tab now too:
select rating
Wanna post a correction for this tab? Suggest correction