Oops, an error
Loading. Please wait.

När Det Blåser På Månen chords

by Kent
538 views 3 this week
no commentswrite comment
1 2 3 4 5
3 more votes to show rating
add to favorites
×
Save as Personal and add changes to this tab that will be seen only by you. Learn more ›
×
You can save this tab as Personal to edit and correct it or add notes. All changes will be seen only by you. Learn more »
launch autoscroll
font size
0
reset
transpose
0
reset
simplify chords
display chords
guitar tuner
edit
Autoscroll
slow
fast
+/-
esc
set tempo
stop
Author
Strumming Is this strumming pattern correct? Yes No
76 bpm
1
 
&
 
2
 
&
 
3
 
&
 
Listen
[Intro]

 F  G  Am  G   2x

Harmonica(as a guitar tab):
    F       G       Am      G
e|-------1--3----1--0----3--7---5--|
B|---------------------------------|
G|--2------------------------------|
D|---------------------------------|
A|---------------------------------|
E|---------------------------------|
               
e|--0-----0-----3--|
B|----4-----4------|
G|------0-----0----|
D|-----------------|
A|-----------------|
E|-----------------|


[Verse]
Fmaj7          Dm7         C   Dm7  Dm7/E
  Kostymen den skaver och jag         
Fmaj7      Dm7       C  Em7  Am
  har inte duschat idag är igår   
    Dsus     Dm        C
och idag ska jag sitta kvar 
     Em7              Am
Jag fuskade med mina svar
      Dsus     Dm       C
Den svarta kostymen ska av  
    Em7           Am
Kostymen är inte jag 
    Dsus          Dm
Kostymen är inte jag 


[Chorus]
Dm/E        F            G
  är jag en astronaut
G           Am           G
  är jag en astronaut
G           F            G
  är jag en astronaut
G           Am    G
  är jag så en - sam

F  G  Am  G   2x

                        
e|--0-----0-----3--------5----12----15--------3----5----0--|
B|----4-----4----------------------------------------------|
G|------0-----0--------------------------------------------|
D|---------------------------------------------------------|
A|---------------------------------------------------------|
E|---------------------------------------------------------|


[Verse]
Fmaj7          Dm7       C    Dm7  Dm7/E
  Klänningen skaver  och du      
Fmaj7                Dm7      C  Em7  Am 
  den skyler knappt barmen  Idag är igår 
    Dsus       Dm       C
och du ska ta mig härifrån  
Em7                   Am
nu när det blåser på månen  
    Dsus   Dm       C
ska du ta mig härifrån
Em7                   Am
nu när vi fyllt alla hålen  
Dsus                  Dm
nu när vi fyllt alla hål


[Chorus]
Dm/E        F            G
  är jag en astronaut
G           Am7          G
  är jag en astronaut
G           F            G
  är jag en astronaut
G           Am    G
  är jag så en - sam

F  G  Am  G  2x

e|--0-----0------|
B|----4-----4----|
G|------0-----0--|
D|---------------|
A|---------------|
E|---------------|


[Solo]
F   G   Am   G    2x
F   G   Am   G/B 
F/C G/D Am/E G    3x
F   G   Am  

            
            
Suggest correction
Creating personal tab
Creating personal tab
You can edit any tab online and save it as your Personal.

You can edit, replace or remove any tab part or add personal notes – all changes will be seen only by you.

Personal tabs can be accessed anytime from any device, even offline.
Learn more »
Give kudos to tab author, rate the tab!
1 2 3 4 5
comments
print report bad tab
guest
You may want to rate the tab now too:
select rating
Wanna post a correction for this tab? Suggest correction