Oops, an error
Loading. Please wait.

Neues Glück bass

64 views 1 this week
no commentswrite comment
1 2 3 4 5
3 more votes to show rating
add to favorites
×
Save as Personal and add changes to this tab that will be seen only by you. Learn more ›
×
You can save this tab as Personal to edit and correct it or add notes. All changes will be seen only by you. Learn more »
launch autoscroll
font size
0
reset
guitar tuner
edit
Autoscroll
slow
fast
+/-
esc
set tempo
stop
Author
Difficulty
Album: Sängerkrieg
Time signature: 4/4
Played with a pick

[Verse I]
G|----------------|----------------|----------------|----------------|
D|----------------|----------------|----------------|----------------|
A|----------------|----------------|----------------|----------------|
E|----------------|----------------|----------------|----------------|
B|3~--------------|----------------|3~--------------|----------3/5b--|

G|----------------|----------------|----------------|----------------|
D|----------------|----------------|----------------|----------------|
A|----------------|----------------|----------------|----------------|
E|----------------|----------------|----------------|----------------|
B|3~--------------|--------------1-|3~--------------|--------1-3-5---|

G|--------------------------------|--------------------------------|--------------------------------|
D|----------------2---2-2-2-2-0---|4---4-4-4-4-0---5---5---5-4-0---|----------------2---2-2-2-2-0---|
A|5---5-5-5-5-3-------------------|--------------------------------|5---5-5-5-5-3-------------------|
E|--------------------------------|--------------------------------|--------------------------------|
B|--------------------------------|--------------------------------|--------------------------------|

G|--------------------------------|--------------------------------|--------------------------------|
D|4---4-4-4-4-0-------2-----------|----------------2---2-2-2-2-0---|4---4-4-4-4-0---5---5---5-4-0---|
A|----------------3-------5---3---|5---5-5-5-5-3-------------------|--------------------------------|
E|--------------------------------|--------------------------------|--------------------------------|
B|--------------------------------|--------------------------------|--------------------------------|

G|--------------------------------|--------------------------------|
D|----------------2---2-2-2-2-0---|4---4-4-4-4-0-------2-----------|
A|5---5-5-5-5-3-------------------|----------------3-------5---.---|
E|--------------------------------|--------------------------------|
B|--------------------------------|--------------------------------|

[Chorus I]
G|--------------------------------|--------------------------------|--------------------------------|
D|--------------------------------|--------------------------------|--------------------------------|
A|2---5---5---------------0---2-2-|--------------3---3-3-2-----0---|2---5---5---------------0-.-2---|
E|------------3-3-.-3-3-3---------|0---0---0---0-----------3-3-----|------------3-3-.-3-3-3---------|
B|--------------------------------|--------------------------------|--------------------------------|

G|--------------------------------|
D|--------------------------------|
A|0---0---7---14------12--12\-----| 2x
E|--------------------------------|
B|--------------------------------|

[Transition]
G|----------------|----------------|
D|----------------|----------------|
A|5~--------------|----------------|
E|----------------|----------------|
B|----------------|----------------|

[Verse II]
G|----------------|----------------|----------------|----------------|
D|----------------|----------------|----------------|----------------|
A|----------------|----------------|----------------|----------------|
E|----------------|----------------|----------------|----------------|
B|3~--------------|----------------|3~--------------|----------3/5b--|

G|----------------|----------------|----------------|----------------|
D|----------------|----------------|----------------|----------------|
A|----------------|----------------|----------------|----------------|
E|----------------|----------------|----------------|----------------|
B|3~--------------|--------------1-|3~--------------|--------1-3-5---|

G|--------------------------------|--------------------------------|--------------------------------|
D|----------------2-2-2-2-2-2-0---|4-4-4-4-4-4-0---5---5---5-4-0---|----------------2-2-2-2-2-2-0---|
A|5-5-5-5-5-5-3-------------------|--------------------------------|5-5-5-5-5-5-3-------------------|
E|--------------------------------|--------------------------------|--------------------------------|
B|--------------------------------|--------------------------------|--------------------------------|

G|--------------------------------|--------------------------------|--------------------------------|
D|4-4-4-4-4-4-0-------2-----------|----------------2-2-2-2-2-2-0---|4-4-4-4-4-4-0---5---5---5-4-0---|
A|----------------3-------5---3---|5-5-5-5-5-5-3-------------------|--------------------------------|
E|--------------------------------|--------------------------------|--------------------------------|
B|--------------------------------|--------------------------------|--------------------------------|

G|--------------------------------|--------------------------------|
D|----------------2-2-2-2-2-2-0---|4-4-4-4-4-4-0-------2-----------|
A|5-5-5-5-5-5-3-------------------|----------------3-------5---.---|
E|--------------------------------|--------------------------------|
B|--------------------------------|--------------------------------|

[Chorus II]
G|--------------------------------|--------------------------------|--------------------------------|
D|--------------------------------|--------------------------------|--------------------------------|
A|2---5---5---------------0---2-2-|--------------3---3-3-2-----0---|2---5---5---------------0-.-2---|
E|------------3-3-.-3-3-3---------|0---0---0---0-----------3-3-----|------------3-3-.-3-3-3---------|
B|--------------------------------|--------------------------------|--------------------------------|

G|--------------------------------|
D|--------------------------------|
A|0---0---7---14------12--12\-----| 2x
E|--------------------------------|
B|--------------------------------|

[Instrumental]
G|--------------------------------|--------------------------------|--------------------------------|
D|----------7---------------------|------------5h7-5-----4-5-4-2---|--------------------------------|
A|5~------------5-------5-7---9---|----------5.------------------2-|5~--------5---------5h7-5-------|
E|--------------------------------|3~------------------------------|------------5-----5.----------0-|
B|--------------------------------|--------------------------------|--------------3-----------------|

G|--------------------------------|--------------------------------|--------------------------------|
D|------------5h7-5-----4-5-4-2---|----------7---------------------|------------5h7-5-----4-5-4-2---|
A|----------5.------------------2-|5~----------5-5-------5-7---9---|----------5.------------------2-|
E|3~------------------------------|--------------------------------|3~------------------------------|
B|--------------------------------|--------------------------------|--------------------------------|

G|--------------------------------|--------------------------------|
D|------------------------------4-|5-------5-5---------------------|
A|5~--------5---------5h7-5---5---|------------5-------------------|
E|------------5-----5.------------|--------------3~----------------|
B|--------------3-----------------|--------------------------------|

[Chorus III]
G|--------------------------------|--------------------------------|--------------------------------|
D|--------------------------------|--------------------------------|--------------------------------|
A|2---5---5---------------0---2-2-|--------------3---3-3-2-----0---|2---5---5---------------0-.-2---|
E|------------3-3-.-3-3-3---------|0---0---0---0-----------3-3-----|------------3-3-.-3-3-3---------|
B|--------------------------------|--------------------------------|--------------------------------|

G|--------------------------------|--------------------------------|--------------------------------|
D|--------------------------------|--------------------------------|--------------------------------|
A|0---0---0---7---14--12--12\-----|2---5---5---------------0---2-2-|--------------3---3-3-2-----0---|
E|--------------------------------|------------3-3-.-3-3-3---------|0---0---0---0-----------3-3-----|
B|--------------------------------|--------------------------------|--------------------------------|

G|--------------------------------|--------------------------------|--------------------------------|
D|--------------------------------|--------------------------------|--------------------------------|
A|2---5---5---------------0-.-2---|0---0---0---0---0---0---12\-----|2---5---5---------------0---2-2-|
E|------------3-3-.-3-3-3---------|--------------------------------|------------3-3-.-3-3-3---------|
B|--------------------------------|--------------------------------|--------------------------------|

G|--------------------------------|--------------------------------|--------------------------------|
D|--------------------------------|--------------------------------|--------------------------------|
A|--------------3---3-3-2-----0---|2---5---5---------------0-.-2---|0---0---7---14------12--12\-----|
E|0---0---0---0-----------3-3-----|------------3-3-.-3-3-3---------|--------------------------------|
B|--------------------------------|--------------------------------|--------------------------------|

G|--------------------------------|--------------------------------|--------------------------------|
D|--------------------------------|--------------------------------|--------------------------------|
A|2---5---5---------------0---2-2-|--------------3---3-3-2-----0---|2---5---5---------------0-.-2---|
E|------------3-3-.-3-3-3---------|0---0---0---0-----------3-3-----|------------3-3-.-3-3-3---------|
B|--------------------------------|--------------------------------|--------------------------------|

G|--------------------------------|
D|------------9-------7-----------|
A|0---0---7---------------5-5-5-5-|
E|--------------------------------|
B|--------------------------------|

***********************************
| /   Slide up
| \   Slide down
| h   Hammer-on
| ~   Vibrato
| b   Bend
***********************************
Suggest correction
Creating personal tab
Creating personal tab
You can edit any tab online and save it as your Personal.

You can edit, replace or remove any tab part or add personal notes – all changes will be seen only by you.

Personal tabs can be accessed anytime from any device, even offline.
Learn more »
Give kudos to tab author, rate the tab!
1 2 3 4 5
comments
print report bad tab
guest
You may want to rate the tab now too:
select rating
Wanna post a correction for this tab? Suggest correction