Oops, an error
Loading. Please wait.

Länger Bleiben tab

343 views 6 this week
no commentswrite comment
1 2 3 4 5
3 more votes to show rating
add to favorites
×
Save as Personal and add changes to this tab that will be seen only by you. Learn more ›
×
You can save this tab as Personal to edit and correct it or add notes. All changes will be seen only by you. Learn more »
launch autoscroll
font size
0
reset
how to read this tab
guitar tuner
edit
Autoscroll
slow
fast
+/-
esc
set tempo
stop
Author
Difficulty
About this tab version
Based on the album version. Was this info helpful? Yes No
Tuning: Standard

[Intro]
e|-----------------|-----------------|-----------------|-----------------|
B|-----3-----3-----|-5p3---5---3-----|-----3-----3-----|-5p3---5---6---0-|
G|---3-----3-----3-|-----3---------3-|---3-----3-----3-|-----3-----------|
D|-5-----5-----5---|-----------------|-5-----5-----5---|-----------------| 2x
A|-----------------|-----------------|-----------------|-----------------|
E|-----------------|-----------------|-----------------|-----------------|

e|-----------------|-----------------|-----------------|-----------------|
B|-----3-----3-----|-5p3---5---3-----|-----3-----3-----|-5p3---5---6-----|
G|---3-----3-----3-|-----3---------3-|---3-----3-----3-|-----3---------7-|
D|-5-----5-----5---|-----------------|-5-----5-----5---|--------------(7)|
A|-----------------|-----------------|-----------------|-----------------|
E|-----------------|-----------------|-----------------|-----------------|
                                                                      
e|-----------------|-----------------|-----------------|-----------------|
B|-----6p5---5-----|-5h6---6---------|-----6p5---5---5-|-----------5-----|
G|-----7---------7-|-------7---7-----|-----7---------5-|-----------------|
D|----(7)----------|------(7)-(7)----|----(7)--------7-|---7---7-----7p5-|
A|-----------------|-----------------|-----------------|-----------------|
E|-----------------|-----------------|-----------------|-----------------|


[Verse]
e|-----------------|-----------------|-----------------|-----------------||
B|-----3-----3-----|-5p3---5---3-----|-----3-----3-----|-5p3---5---6-----||
G|---3-----3-----3-|-----3---------3-|---3-----3-----3-|-----3---------7-||
D|-5-----5-----5---|-----------------|-5-----5-----5---|--------------(7)||
A|-----------------|-----------------|-----------------|-----------------||
E|-----------------|-----------------|-----------------|-----------------||
                                                                          | 2x
e|-----------------|-----------------|-----------------|-----------------|| 
B|-----6p5---5-----|-5h6---6---------|-----6p5---5---5-|-----------5-----||
G|-----7---------7-|-------7---7-----|-----7---------5-|-----------------||
D|----(7)----------|------(7)-(7)----|----(7)--------7-|---7---7-----7p5-||
A|-----------------|-----------------|-----------------|-----------------||
E|-----------------|-----------------|-----------------|-----------------||

e|-----------------|-----------------|-----------------|-----------------|
B|-----3-----3-----|-5p3---5---3-----|-----3-----3-----|-5p3---5---6-----|
G|---3-----3-----3-|-----3---------3-|---3-----3-----3-|-----3---------7-|
D|-5-----5-----5---|-----------------|-5-----5-----5---|--------------(7)|
A|-----------------|-----------------|-----------------|-----------------|
E|-----------------|-----------------|-----------------|-----------------|
                                                                      
e|-----------------|-----------------|-----------------|-----------------|
B|-----6p5---5-----|-5h6---6---------|-----6-6-6-6---5-|---5-5-5-5-5-5-5-|
G|-----7---------7-|-------7---7-----|-----7-7-7-7---5-|---5-5-5-5-5-5-5-|
D|----(7)----------|------(7)-(7)----|-----7-7-7-7---7-|---7-7-7-7-7-7-7-|
A|-----------------|-----------------|-----------------|-----------------|
E|-----------------|-----------------|-----------------|-----------------|


[Chorus]
e|-10--------------------------9---|---------------------------------|
B|-10--------------------------10--|---------------------------------|
G|-10--------------------------9---|---------------------------------|
D|-12--------------------------11--|---------------------------------|
A|-12--------------------------12--|---------------------------------|
E|-10--------------------------9---|---------------------------------|

e|-8---------------------------7---|---------------------------------|
B|-10--------------------------8---|---------------------------------|
G|-10--------------------------7---|---------------------------------|
D|-10--------------------------9---|---------------------------------|
A|-8---------------------------10--|---------------------------------|
E|-8---------------------------7---|---------------------------------|

e|-6-------------------6-------5---|-----------5-------------5-------|
B|-6-------------------6-------6---|-----------6-------------6-------|
G|-7-------------------7-------7---|-----------7-------------7-------|
D|-8-------------------8-------7---|-----------7-------------7-------|
A|-8-------------------8-------5---|-----------5-------------5-------|
E|-6-------------------6-------5---|-----------5-------------5-------|

e|-4-------4-------4---------------|-----5-----------5-------5-------|
B|-5-------5-------5---------------|-----5-----------5-------5-------|
G|-4-------4-------4---------------|-----6-----------6-------6-------|
D|-6-------6-------6---------------|-----7-----------7-------6-------|
A|-7-------7-------7---------------|-----7-----------7-------7-------|
E|-4-------4-------4---------------|-5---5-------5---5-------5-------|

e|---------10----------10------9---|-----9-----------9-------9-------|
B|---------10----------10------10--|-----10----------10------10------|
G|---------10----------10------9---|-----9-----------9-------9-------|
D|---------12----------12------11--|-----11----------11------11------|
A|---------12----------12------12--|-----12----------12------12------|
E|-10------10----------10------9---|-----9-----------9-------9-------|

e|---------8-----------8-------7---|-----7-----------7-------7-------|
B|---------10----------10------8---|-----8-----------8-------8-------|
G|---------10----------10------7---|-----7-----------7-------7-------|
D|---------10----------10------9---|-----9-----------9-------9-------|
A|(8)------8-----------8-------10--|-----10----------10------10------|
E|-8-------8-----------8-------7---|-----7-----------7-------7-------|

e|---------6-----------6-------5---|-----5-----------5-------5-------|
B|---------6-----------6-------6---|-----6-----------6-------6-------|
G|---------7-----------7-------7---|-----7-----------7-------7-------|
D|---------8-----------8-------7---|-----7-----------7-------7-------|
A|(8)------8-----------8-------5---|-----5-----------5-------5-------|
E|-6-------6-----------6-------5---|-----5-----------5-------5-------|

e|-4---4---4---4---4---------------|-----5-----------5-------5-------|
B|-5---5---5---5---5---------------|-----5-----------5-------5-------|
G|-4---4---4---4---4---------------|-----6-----------6-------6-------|
D|-6---6---6---6---6---------------|-----7-----------7-------6-------|
A|-7---7---7---7---7---------------|-----7-----------7-------7-------|
E|-4---4---4---4---4-----------5---|-----5-------5---5-------5-------|


[Interlude]
e|-----------------|-----------------|-----------------|-----------------|
B|-----3-----3-----|-5p3---5---3-----|-----3-----3-----|-5p3---5---6-----|
G|---3-----3-----3-|-----3---------3-|---3-----3-----3-|-----3---------7-|
D|-5-----5-----5---|-----------------|-5-----5-----5---|--------------(7)|
A|-----------------|-----------------|-----------------|-----------------|
E|-----------------|-----------------|-----------------|-----------------|
                                                                      
e|-----------------|-----------------|-----------------|-----------------|
B|-----6p5---5-----|-5h6---6---------|-----6p5---5---5-|-----------5-----|
G|-----7---------7-|-------7---7-----|-----7---------5-|-----------------|
D|----(7)----------|------(7)-(7)----|----(7)--------7-|---7---7-----7p5-|
A|-----------------|-----------------|-----------------|-----------------|
E|-----------------|-----------------|-----------------|-----------------|


[Verse]
e|-----------------|-----------------|-----------------|-----------------||
B|-----3-----3-----|-5p3---5---3-----|-----3-----3-----|-5p3---5---6-----||
G|---3-----3-----3-|-----3---------3-|---3-----3-----3-|-----3---------7-||
D|-5-----5-----5---|-----------------|-5-----5-----5---|--------------(7)||
A|-----------------|-----------------|-----------------|-----------------||
E|-----------------|-----------------|-----------------|-----------------||
                                                                          | 2x
e|-----------------|-----------------|-----------------|-----------------|| 
B|-----6p5---5-----|-5h6---6---------|-----6p5---5---5-|-----------5-----||
G|-----7---------7-|-------7---7-----|-----7---------5-|-----------------||
D|----(7)----------|------(7)-(7)----|----(7)--------7-|---7---7-----7p5-||
A|-----------------|-----------------|-----------------|-----------------||
E|-----------------|-----------------|-----------------|-----------------||

e|-----------------|-----------------|-----------------|-----------------|
B|-----3-----3-----|-5p3---5---3-----|-----3-----3-----|-5p3---5---6-----|
G|---3-----3-----3-|-----3---------3-|---3-----3-----3-|-----3---------7-|
D|-5-----5-----5---|-----------------|-5-----5-----5---|--------------(7)|
A|-----------------|-----------------|-----------------|-----------------|
E|-----------------|-----------------|-----------------|-----------------|
                                                                      
e|-----------------|-----------------|-----------------|-----------------|
B|-----6p5---5-----|-5h6---6---------|-----6-6-6-6---5-|---5-5-5-5-5-5-5-|
G|-----7---------7-|-------7---7-----|-----7-7-7-7---5-|---5-5-5-5-5-5-5-|
D|----(7)----------|------(7)-(7)----|-----7-7-7-7---7-|---7-7-7-7-7-7-7-|
A|-----------------|-----------------|-----------------|-----------------|
E|-----------------|-----------------|-----------------|-----------------|


[Chorus]
e|-10--------------------------9---|---------------------------------|
B|-10--------------------------10--|---------------------------------|
G|-10--------------------------9---|---------------------------------|
D|-12--------------------------11--|---------------------------------|
A|-12--------------------------12--|---------------------------------|
E|-10--------------------------9---|---------------------------------|

e|-8---------------------------7---|---------------------------------|
B|-10--------------------------8---|---------------------------------|
G|-10--------------------------7---|---------------------------------|
D|-10--------------------------9---|---------------------------------|
A|-8---------------------------10--|---------------------------------|
E|-8---------------------------7---|---------------------------------|

e|-6-------------------6-------5---|-----------5-------------5-------|
B|-6-------------------6-------6---|-----------6-------------6-------|
G|-7-------------------7-------7---|-----------7-------------7-------|
D|-8-------------------8-------7---|-----------7-------------7-------|
A|-8-------------------8-------5---|-----------5-------------5-------|
E|-6-------------------6-------5---|-----------5-------------5-------|

e|-4-------4-------4---------------|-----5-----------5-------5-------|
B|-5-------5-------5---------------|-----5-----------5-------5-------|
G|-4-------4-------4---------------|-----6-----------6-------6-------|
D|-6-------6-------6---------------|-----7-----------7-------6-------|
A|-7-------7-------7---------------|-----7-----------7-------7-------|
E|-4-------4-------4---------------|-5---5-------5---5-------5-------|

e|---------10----------10------9---|-----9-----------9-------9-------|
B|---------10----------10------10--|-----10----------10------10------|
G|---------10----------10------9---|-----9-----------9-------9-------|
D|---------12----------12------11--|-----11----------11------11------|
A|---------12----------12------12--|-----12----------12------12------|
E|-10------10----------10------9---|-----9-----------9-------9-------|

e|---------8-----------8-------7---|-----7-----------7-------7-------|
B|---------10----------10------8---|-----8-----------8-------8-------|
G|---------10----------10------7---|-----7-----------7-------7-------|
D|---------10----------10------9---|-----9-----------9-------9-------|
A|(8)------8-----------8-------10--|-----10----------10------10------|
E|-8-------8-----------8-------7---|-----7-----------7-------7-------|

e|---------6-----------6-------5---|-----5-----------5-------5-------|
B|---------6-----------6-------6---|-----6-----------6-------6-------|
G|---------7-----------7-------7---|-----7-----------7-------7-------|
D|---------8-----------8-------7---|-----7-----------7-------7-------|
A|(8)------8-----------8-------5---|-----5-----------5-------5-------|
E|-6-------6-----------6-------5---|-----5-----------5-------5-------|

e|-4---4---4---4---4---------------|-----5-----------5-------5-------|
B|-5---5---5---5---5---------------|-----5-----------5-------5-------|
G|-4---4---4---4---4---------------|-----6-----------6-------6-------|
D|-6---6---6---6---6---------------|-----7-----------7-------6-------|
A|-7---7---7---7---7---------------|-----7-----------7-------7-------|
E|-4---4---4---4---4-----------5---|-----5-------5---5-------5-------|


[Outro]
e|---------10----------10------9---|-----9-----------9-------9-------||
B|---------10----------10------10--|-----10----------10------10------||
G|---------10----------10------9---|-----9-----------9-------9-------||
D|---------12----------12------11--|-----11----------11------11------||
A|---------12----------12------12--|-----12----------12------12------||
E|-10------10------10--10------9---|-----9-------9---9-------9-------||
                                                                      |
e|---------8-----------8-------7---|-----7-----------7-------7-------||
B|---------10----------10------8---|-----8-----------8-------8-------||
G|---------10----------10------7---|-----7-----------7-------7-------||
D|---------10----------10------9---|-----9-----------9-------9-------||
A|(8)------8-----------8-------10--|-----10----------10------10------||
E|-8-------8-------8---8-------7---|-----7-----------7-------7-------||
                                                                      | 2x
e|---------6-----------6-------5---|-----5-----------5-------5-------||
B|---------6-----------6-------6---|-----6-----------6-------6-------||
G|---------7-----------7-------7---|-----7-----------7-------7-------||
D|---------8-----------8-------7---|-----7-----------7-------7-------||
A|(8)------8-----------8-------5---|-----5-----------5-------5-------||
E|-6-------6-------6---6-------5---|-----5-----------5-------5-------||
                                                                      |
e|-4---4---4---4---4---------------|-----5-----------5-------5-------||
B|-5---5---5---5---5---------------|-----5-----------5-------5-------||
G|-4---4---4---4---4---------------|-----6-----------6-------6-------||
D|-6---6---6---6---6---------------|-----7-----------7-------6-------||
A|-7---7---7---7---7---------------|-----7-----------7-------7-------||
E|-4---4---4---4---4-----------5---|-----5-------5---5-------5-------||

e|-5-------------------------------|
B|-6-------------------------------|
G|-7-------------------------------|
D|-7-------------------------------|
A|-5-------------------------------|
E|-5-------------------------------|



************************************

| h   hammer-on
| p   pull-off

************************************

            
            
Suggest correction
Creating personal tab
Creating personal tab
You can edit any tab online and save it as your Personal.

You can edit, replace or remove any tab part or add personal notes – all changes will be seen only by you.

Personal tabs can be accessed anytime from any device, even offline.
Learn more »
Give kudos to tab author, rate the tab!
1 2 3 4 5
comments
print report bad tab
guest
You may want to rate the tab now too:
select rating
Wanna post a correction for this tab? Suggest correction