Oops, an error
Loading. Please wait.

Garota De Ipanema bass

88 views 3 this week
1 commentread comment
1 2 3 4 5
3 more votes to show rating
add to favorites
×
Save as Personal and add changes to this tab that will be seen only by you. Learn more ›
×
You can save this tab as Personal to edit and correct it or add notes. All changes will be seen only by you. Learn more »
launch autoscroll
font size
0
reset
guitar tuner
edit
Autoscroll
slow
fast
+/-
esc
set tempo
stop
Author
Difficulty
GAROTA DE IPANEMA – Jao Gilbert – Astrud Gilberto / Stan Getz– BASS 
(KEY OF Db like the original of Carlos Jobim) 

Intro: 00:01    [guitar playing]
kim doum doum
kim doum doum
kim doum doum 

Verse1: 00:09
Olha que coisa mais linda
Mais cheia de graça
É ela menina
Que vem e que passa
Num doce balanço
Caminho do mar

Bass start: 00:24
  G≠                                     Eb    
G|-----------------------|-----------------------|-
D|-----------------------|------8--8------8--6---|-
A|------6--6------6--4-5-|-6r-6------6--6------8-|-
E|-4r-4------4--4--------|-----------------------|-
Moça do corpo dourado, Do sol de Ipanema
                           O seu balançado
                           É mais que um 

   Bb          Eb         Db                Ab
G|-----------|-----------|-----------|-----------|-
D|-----------|-------8-8-|-------6-6-|-----------|-
A|-------8-8-|-6r-6------|-4r-4------|-------6-6-|-
E|-6r-6------|-----------|-----------|-4r-4------|-
poema    É a coisa mais linda    Que eu já vi passer


Chorus: 00:38
   A                                      D
G|-----------------------|-----------------------|-
D|-----------------------|------7--7------7--5---|-
A|-------7--7------5-3-4-|-5r-x------5--5------7-|-
E|-5r-x-------5--7-------|-----------------------|-
Ah! porque estou tão sozinho
   G                                      C
G|-----------------------|-----------------------|-
D|-----------------------|------5--5------5--3---|-
A|-------5--5------5-1-2-|-3r-3------3--3------5-|-
E|-3r-3-------3--3-------|-----------------------|-
Ah! porque tudo é tão triste
   Bb                             Eb
G|-----------------------|-----------------------|-
D|-----------------------|------8--8------8--6---|-
A|-------8--8------8-4-5-|-6r-6------6--6------8-|-
E|-6r-6-------6--6-------|-----------------------|-
Ah! a beleza que existe
   G≠          C≠         
G|-----------|-----------|-
D|-----------|------6-6--|-
A|-------6-6-|-4r-4------|-
E|-4r-4------|-----------|-
A beleza que não é só minha
   F≠                B
G|-----------|-----------|-
D|-----------|------4-4--|-
A|-------4-4-|-2r-2------|-
E|-2r-2------|-----------|-
Que também passa sozinha


Verse2: 01:09 (1/2 verse) 
  G≠                                     Eb    
G|-----------------------|-----------------------|-
D|-----------------------|------8--8------8--6---|-
A|------6--6------6--4-5-|-6r-6------6--6------8-|-
E|-4r-4------4--4--------|-----------------------|-
Ah! Se ela soubesse, Que quando ela passa
                           O mundo sorrindo
                           Se enche de graça

   Bb          Eb         Ab                Ab
G|-----------|-----------|-----------|-----------|-
D|-----------|-------8-8-|-----------|-----------|-
A|-------8-8-|-6r-6------|-------6-6-|-------6-6-|-
E|-6r-6------|-----------|-4r-4------|-4r-4------|-
E fica mais lindo
Por causa do amor

Verse3: 01:23 (English verse)
  G≠                                     Eb    
G|-----------------------|-----------------------|-
D|-----------------------|------8--8------8--6---|-
A|------6--6------6--4-5-|-6r-6------6--6------8-|-
E|-4r-4------4--4--------|-----------------------|-
Tall and tan and young and lovely
The girl from Ipanema goes walking and

   Bb          Eb         Ab                Ab
G|-----------|-----------|-----------|-----------|-
D|-----------|-------8-8-|-----------|-----------|-
A|-------8-8-|-6r-6------|-------6-6-|-------6-6-|-
E|-6r-6------|-----------|-4r-4------|-4r-4------|-
When she passes, each one she passes goes "ah"

  G≠                                     Eb    
G|-----------------------|-----------------------|-
D|-----------------------|------8--8------8--6---|-
A|------6--6------6--4-5-|-6r-6------6--6------8-|-
E|-4r-4------4--4--------|-----------------------|-
When she walks, she's like a samba
That swings so cool and sways so gentle that…

   Bb          Eb         Db                Ab
G|-----------|-----------|-----------|-----------|-
D|-----------|-------8-8-|-------6-6-|-----------|-
A|-------8-8-|-6r-6------|-4r-4------|-------6-6-|-
E|-6r-6------|-----------|-----------|-4r-4------|-
When she passes, each one she passes goes… "ah"


Chorus: 01:52
   A                                      D
G|-----------------------|-----------------------|-
D|-----------------------|------7--7------7--5---|-
A|-------7--7------5-3-4-|-5r-x------5--5------7-|-
E|-5r-x-------5--7-------|-----------------------|-
Oh, But he watched her so sadly

   G                                      C
G|-----------------------|-----------------------|-
D|-----------------------|------5--5------5--3---|-
A|-------5--5------5-1-2-|-3r-3------3--3------5-|-
E|-3r-3-------3--3-------|-----------------------|-
How can he tells her, "he loves her ?"

Bb                                Eb
G|-----------------------|-----------------------|-
D|-----------------------|------8--8------8--6---|-
A|-------8--8------8-4-5-|-6r-6------6--6------8-|-
E|-6r-6-------6--6-------|-----------------------|-
Yes, he would give his heart gladly

   G≠          C≠         
G|-----------|-----------|-
D|-----------|------6-6--|-
A|-------6-6-|-4r-4------|-
E|-4r-4------|-----------|-
But each day, when she walks to the sea

   F≠                B
G|-----------|-----------|-
D|-----------|------4-4--|-
A|-------4-4-|-2r-2------|-
E|-2r-2------|-----------|-
She looks straight ahead, not at he…


Verse4: 01:09 (1/2 verse) 
  G≠                                     Eb    
G|-----------------------|-----------------------|-
D|-----------------------|------8--8------8--6---|-
A|------6--6------6--4-5-|-6r-6------6--6------8-|-
E|-4r-4------4--4--------|-----------------------|-
Tall and tan and young and lovely
The girl from Ipanema goes walking and

   Bb          Eb         Ab                Ab
G|-----------|-----------|-----------|-----------|-
D|-----------|-------8-8-|-----------|-----------|-
A|-------8-8-|-6r-6------|-------6-6-|-------6-6-|-
E|-6r-6------|-----------|-4r-4------|-4r-4------|-
When she passes, he smiles but she doesn't see…



Instrumental:  (Saxophone) (Play Verse + Chorus) 
Verse:  02:37
  G≠                                     Eb    
G|-----------------------|-----------------------|-
D|-----------------------|------8--8------8--6---|-
A|------6--6------6--4-5-|-6r-6------6--6------8-|-
E|-4r-4------4--4--------|-----------------------|-
   Bb          Eb         Ab                Ab
G|-----------|-----------|-----------|-----------|-
D|-----------|-------8-8-|-----------|-----------|-
A|-------8-8-|-6r-6------|-------6-6-|-------6-6-|-
E|-6r-6------|-----------|-4r-4------|-4r-4------|-
  G≠                                     Eb    
G|-----------------------|-----------------------|-
D|-----------------------|------8--8------8--6---|-
A|------6--6------6--4-5-|-6r-6------6--6------8-|-
E|-4r-4------4--4--------|-----------------------|-
   Bb          Eb         Db                Ab
G|-----------|-----------|-----------|-----------|-
D|-----------|-------8-8-|-------6-6-|-----------|-
A|-------8-8-|-6r-6------|-4r-4------|-------6-6-|-
E|-6r-6------|-----------|-----------|-4r-4------|-

Chorus: 03:06
   A                                      D
G|-----------------------|-----------------------|-
D|-----------------------|------7--7------7--5---|-
A|-------7--7------5-3-4-|-5r-x------5--5------7-|-
E|-5r-x-------5--7-------|-----------------------|-
   G                                      C
G|-----------------------|-----------------------|-
D|-----------------------|------5--5------5--3---|-
A|-------5--5------5-1-2-|-3r-3------3--3------5-|-
E|-3r-3-------3--3-------|-----------------------|-
   Bb                             Eb
G|-----------------------|-----------------------|-
D|-----------------------|------8--8------8--6---|-
A|-------8--8------8-4-5-|-6r-6------6--6------8-|-
E|-6r-6-------6--6-------|-----------------------|-
   G≠          C≠         
G|-----------|-----------|-
D|-----------|------6-6--|-
A|-------6-6-|-4r-4------|-
E|-4r-4------|-----------|-
   F≠                B
G|-----------|-----------|-
D|-----------|------4-4--|-
A|-------4-4-|-2r-2------|-
E|-2r-2------|-----------|-

Interlude: 03:35
  G≠                                     Eb    
G|-----------------------|-----------------------|-
D|-----------------------|------8--8------8--6---|-
A|------6--6------6--4-5-|-6r-6------6--6------8-|-
E|-4r-4------4--4--------|-----------------------|-

   Bb          Eb         Ab                Ab
G|-----------|-----------|-----------|-----------|-
D|-----------|-------8-8-|-----------|-----------|-
A|-------8-8-|-6r-6------|-------6-6-|-------6-6-|-
E|-6r-6------|-----------|-4r-4------|-4r-4------|-


Instrumental:  (piano) (Play Verse only)
Verse: 03:50
  G≠                                     Eb    
G|-----------------------|-----------------------|-
D|-----------------------|------8--8------8--6---|-
A|------6--6------6--4-5-|-6r-6------6--6------8-|-
E|-4r-4------4--4--------|-----------------------|-

   Bb          Eb         Ab                Ab
G|-----------|-----------|-----------|-----------|-
D|-----------|-------8-8-|-----------|-----------|-
A|-------8-8-|-6r-6------|-------6-6-|-------6-6-|-
E|-6r-6------|-----------|-4r-4------|-4r-4------|-

  G≠                                     Eb    
G|-----------------------|-----------------------|-
D|-----------------------|------8--8------8--6---|-
A|------6--6------6--4-5-|-6r-6------6--6------8-|-
E|-4r-4------4--4--------|-----------------------|-
   Bb          Eb         Db                Ab
G|-----------|-----------|-----------|-----------|-
D|-----------|-------8-8-|-------6-6-|-----------|-
A|-------8-8-|-6r-6------|-4r-4------|-------6-6-|-
E|-6r-6------|-----------|-----------|-4r-4------|-

Chorus: 04:19 (Reprise Vocals + sax) 
   A                                      D
G|-----------------------|-----------------------|-
D|-----------------------|------7--7------7--5---|-
A|-------7--7------5-3-4-|-5r-x------5--5------7-|-
E|-5r-x-------5--7-------|-----------------------|-
Oh, But he sees her so sadly
   G                                      C
G|-----------------------|-----------------------|-
D|-----------------------|------5--5------5--3---|-
A|-------5--5------5-1-2-|-3r-3------3--3------5-|-
E|-3r-3-------3--3-------|-----------------------|-
How can he tells her, "he loves her ?"
   Bb                             Eb
G|-----------------------|-----------------------|-
D|-----------------------|------8--8------8--6---|-
A|-------8--8------8-4-5-|-6r-6------6--6------8-|-
E|-6r-6-------6--6-------|-----------------------|-
Yes, he would give his heart gladly
   G≠          C≠         
G|-----------|-----------|-
D|-----------|------6-6--|-
A|-------6-6-|-4r-4------|-
E|-4r-4------|-----------|-
But each day, when she walks to the sea
   F≠                B
G|-----------|-----------|-
D|-----------|------4-4--|-
A|-------4-4-|-2r-2------|-
E|-2r-2------|-----------|-
She looks straight ahead, not at he…

Verse5: 04:49 (1/2 verse) 
  G≠                                     Eb    
G|-----------------------|-----------------------|-
D|-----------------------|------8--8------8--6---|-
A|------6--6------6--4-5-|-6r-6------6--6------8-|-
E|-4r-4------4--4--------|-----------------------|-
Tall and tan and young and lovely
The girl from Ipanema goes walking and

   Bb          Eb         Ab                Ab
G|-----------|-----------|-----------|-----------|-
D|-----------|-------8-8-|-----------|-----------|-
A|-------8-8-|-6r-6------|-------6-6-|-------6-6-|-
E|-6r-6------|-----------|-4r-4------|-4r-4------|-
When she passes, he smiles but she doesn't see…

   Bb          Eb         Ab                Ab
G|-----------|-----------|-----------|-----------|-
D|-----------|-----------|-----------|-----------|-
A|-------6-6-|-------6-6-|-------6-6-|-------6-6-|-
E|-4r-4------|-4r-4------|-4r-4------|-4r-4------|-
She just doesn't see…
She doesn’t see
She doesn’t see
No, she doesn’t see…


End: 05:31 ... 

            
            
Suggest correction
Creating personal tab
Creating personal tab
You can edit any tab online and save it as your Personal.

You can edit, replace or remove any tab part or add personal notes – all changes will be seen only by you.

Personal tabs can be accessed anytime from any device, even offline.
Learn more »
Give kudos to tab author, rate the tab!
1 2 3 4 5
comments
print report bad tab
1 comment total.
0 reply
Bruno Frenchy 4,686 Feb 14, 2017 02:21 PM

Bossa nova style to play this lovely song... resting on my tab use your imagination and talent to improvise...

guest
You may want to rate the tab now too:
select rating
Wanna post a correction for this tab? Suggest correction