Oops, an error
Loading. Please wait.

Veinte Años tab

version 2
version 2

Whole song

130 views 9 this week
no commentswrite comment
1 2 3 4 5
3 more votes to show rating
add to favorites
×
Save as Personal and add changes to this tab that will be seen only by you. Learn more ›
×
You can save this tab as Personal to edit and correct it or add notes. All changes will be seen only by you. Learn more »
launch autoscroll
font size
0
reset
how to read this tab
guitar tuner
edit
Autoscroll
slow
fast
+/-
esc
set tempo
stop
Author
Difficulty
[Chords]
F#m7b5 xx4445
Em/G   322000
C#m7b5 x3434x
Em6/9  022022

[Intro]
                 Em                        D         B           B7
e|-------------|-0---------------|---3-3-3-2-2-0-0-|---------------|-----------------|-----------------|
B|-0-0-1-0---0-|---------0-------|---0-0-0---------|-4-----------0-|-1---------------|---------------1-|
G|---------3---|-------0---0-----|---------2-2-0-0-|---------------|-----0-2---------|-------------2---|
D|-------------|-----2-------2---|-----------------|-4-------------|---4-----1-2-4---|---------1-4-----|
A|-------------|---2-------------|-----------------|---------------|---------------2-|-3-2-1-2---------|
E|-------------|-----------------|-----------------|---------------|-----------------|-----------------|

  Am B    B7     Em                                 E7                              Am
e|--------------|----------------|-----------------|-0-----0-------|---------------|-------------------|
B|-1------0-----|-----0----------|----0-0-1-1---0--|-0-------3-0---|---------------|---------------0---|
G|------------2-|-0---0----0-----|-0----------3----|-1-----------1-|---------------|---------2---2-----|
D|-2------1---3-|-2--------2-----|-2---------------|---------------|-2---0---------|-------2---2-------|
A|--------------|----------------|-----------------|---------------|-2-------3---2-|-0-2-3-------------|
E|--------------|----------------|-----------------|---------------|-4-------------|-------------------|

       B          Em      G         F#7      B7      Em
e|--------------|----------------|-----------------|-0-------------|
B|-1-------0----|-0-----------0--|--2--------4-----|-0-------------|
G|-2---2-3---2--|---------0------|--3--------2-----|-0-------------|
D|-2---1--------|-----2-3--------|--2--------4-----|---------------|
A|--------------|---2-------2----|-----------------|---------------|
E|--------------|----------------|-----------------|-0-------------|

                       Em
¿qué te importa que te ame,
      D7            B
si tú no me quieres ya?

el amor que ya ha pasado
                 Em
no se debe recordar 
                      E7
Fui la ilusión de tu vida
              Am
un día lejano ya,
          F#m7b5       Em/G
hoy represento al pasado,
       F#7   B7    Em
no me puedo conformar. 
          F#m7b5       Em/G
hoy represento el pasado,
       F#7   B7    Em
no me puedo conformar.

        D
Si las cosas que uno quiere
                   G
se pudieran alcanzar,
      B7     
tú me quisieras lo mismo 
                    Em
que veinte años atrás.
            E7
Con qué tristeza miramos
                   Am
un amor que se nos va
        F#m7b5   Em/G
es un pedazo del alma
       F#m7    B7      Em
que se arranca sin piedad
        F#m7b5   Em/G
es un pedazo del alma
       F#m7    B7      Em
que se arranca sin piedad
e|-----------|
B|-0-1-------|
G|-----0-----|
D|-------4-2-|
A|-----------|
E|-----------|
                 Em                D7        B                                                    Em
e|--------------|-0----------|-------------|-----------|---------------|-2--0-------|------------|-----------|
B|-0-0-1-0---0--|------------|-0-0-1-0-----|-----------|-0-0-1-0-----0-|-------4--1-|-0----------|-0---------|
G|---------3----|------------|---------2-0-|-----------|---------3-0---|------------|-----2-0-2--|-----------|
D|--------------|------------|-------------|-4---------|---------------|------------|------------|-----------|
A|--------------|------------|-------------|-----------|---------------|------------|------------|-----------|
E|--------------|------------|-------------|-----------|---------------|------------|------------|-----------|

                 E7                          Am
e|--------------|-0-------0--|--0-----------|-----------|
B|-0-0-1-0---0--|------------|----0---------|-----------|
G|---------3----|------------|------4-2-4-5-|-----------|
D|--------------|------------|--------------|-----------|
A|--------------|------------|--------------|-----------|
E|--------------|------------|--------------|-----------|

  Am     F#m7b5   Em/G        F7   B7       Em  
e|-------0---2--|-0------0-2-|-3---0-2----|-0----------|
B|---0-1---4----|----0-------|----------3-|------------|
G|-2------------|--------0-2-|-4---0-2----|-0----------|
D|--------------|------------|----------4-|------------|
A|--------------|------------|------------|------------|
E|--------------|------------|------------|------2-3-4-|

  Am     F#m7b5   Em/G        F7   B7       Em  
e|-------0---2--|-0------0-2-|-3---0-2----|-0----------|
B|---0-1---4----|----0-------|----------3-|------------|
G|-2------------|--------0-2-|-4---0-2----|-0----------|
D|--------------|------------|----------4-|------------|
A|--------------|------------|------------|------------|
E|--------------|------------|------------|------------|

        D
Si las cosas que uno quiere
                  G
se pudieran alcanzar,
      B7     
tú me quisieras lo mismo 
                  Em
que veinte años atrás.
            E7
Con qué tristeza miramos
                   Am
un amor que se nos va
        F#m7b5   Em/G
es un pedazo del alma
       F#m7    B7      Em
que se arranca sin piedad
        F#m7b5   Em/G
es un pedazo del alma
Em/G      C#m7b5  B          Em6/9
que se arranca    sin piedad



************************************

| B                                                    Em 
| m                D 

************************************
Suggest correction
Creating personal tab
Creating personal tab
You can edit any tab online and save it as your Personal.

You can edit, replace or remove any tab part or add personal notes – all changes will be seen only by you.

Personal tabs can be accessed anytime from any device, even offline.
Learn more »
Give kudos to tab author, rate the tab!
1 2 3 4 5
comments
print report bad tab
guest
You may want to rate the tab now too:
select rating
Wanna post a correction for this tab? Suggest correction