Oops, an error
Loading. Please wait.

Ramones tab

version 1
version 1

Whole song

Interactive

253 views 21 this week
no commentswrite comment
1 2 3 4 5
3 more votes to show rating
add to favorites
×
Save as Personal and add changes to this tab that will be seen only by you. Learn more ›
×
You can save this tab as Personal to edit and correct it or add notes. All changes will be seen only by you. Learn more »
launch autoscroll
font size
0
reset
how to read this tab
guitar tuner
edit
Autoscroll
slow
fast
+/-
esc
set tempo
stop
Artist: Motörhead
Album: 1916
Song: R.A.M.O.N.E.S.


[Intro]
e|--------------| |---------------------------------------||
B|--------------| *---------------------------------------*|
G|--------------|3|---------------------------------------||
D|--------------|x|--9---7---9---9--9--9--9--7---9---X--X-||
A|--------------| *--7---7---7---7--7--7--7--5---7---X--X-*|
E|--------------| |---------------------------------------||


[Verse 1]
e||---------------------------------------|--------------------------------||
B|*---------------------------------------|--------------------------------*|
G||---------------------------------------|--------------------------------||
D||--9---7---9---9--9--9--9--7---9---X--X-|--------------------------------||
A|*--7---7---7---7--7--7--7--5---7---X--X-|--9---9---9---9---7---7---7---7-*|
E||---------------------------------------|--7---7---7---7---5---5---5---5-||
     New York City,           N.Y.C.,        Pretty mean when it wants to be,
     Black leather,  knee-hole pants,        Can't play no high school dance,

e|-------------------------------------|-------------------------------------|
B|-------------------------------------|-------------------------------------|
G|-------------------------------------|-------------------------------------|
D|-------------------------------------|-------------------------------------|
A|--7---7---7---X--X--7---7---7---X--X-|--9---9---9---X--X--9---9---9---X--X-|
E|--5---5---5---X--X--5---5---5---X--X-|--7---7---7---X--X--7---7---7---X--X-|
    Fuzz tone,       hear 'em go,         hear 'em      on the radio,

[Chorus]
e|-------------------------------------|-------------------------------------|
B|-------------------------------------|-------------------------------------|
G|-------------------------------------|-------------------------------------|
D|-------------------------------------|-------------------------------------|
A|--7---7---7---X--X--7---7---7---X--X-|--9---9---9---X--X--9---9---9---X--X-|
E|--5---5---5---X--X--5---5---5---X--X-|--7---7---7---X--X--7---7---7---X--X-|
    Misfits,          twilight zone,      R    A    M    O    N    E    S

e|-------------------------------------|---------------------------------------|
B|-------------------------------------|---------------------------------------|
G|-------------------------------------|---------------------------------------|
D|--7---7---7---X--X--7---7---7---X--X-|--9---7---9---9--9--9--9--7---9---X--X-|
A|--5---5---5---X--X--5---5---5---X--X-|--7---7---7---7--7--7--7--5---7---X--X-|
E|-------------------------------------|---------------------------------------|
    R    A    M    O    N    E    S       Ramones!

[Pre-Verse]
e| |---------------------------------------||
B| *---------------------------------------*|
G|3|---------------------------------------||
D|x|--9---7---9---9--9--9--9--7---9---X--X-||
A| *--7---7---7---7--7--7--7--5---7---X--X-*|
E| |---------------------------------------||


[Verse 2]
e||---------------------------------------|--------------------------------||
B|*---------------------------------------|--------------------------------*|
G||---------------------------------------|--------------------------------||
D||--9---7---9---9--9--9--9--7---9---X--X-|--------------------------------||
A|*--7---7---7---7--7--7--7--5---7---X--X-|--9---9---9---9---7---7---7---7-*|
E||---------------------------------------|--7---7---7---7---5---5---5---5-||
     Bad boy rock,     bad boy roll,         Gabba gabba,      see them go,
     C. Jay now        hit the gas,          Hear Marky      kick some ass,

e|-------------------------------------|-------------------------------------|
B|-------------------------------------|-------------------------------------|
G|-------------------------------------|-------------------------------------|
D|-------------------------------------|-------------------------------------|
A|--7---7---7---X--X--7---7---7---X--X-|--9---9---9---X--X--9---9---9---X--X-|
E|--5---5---5---X--X--5---5---5---X--X-|--7---7---7---X--X--7---7---7---X--X-|
    Go Johnny,        go, go, go,         go Tommy          o-way-o,

[Chorus]
e|-------------------------------------|-------------------------------------|
B|-------------------------------------|-------------------------------------|
G|-------------------------------------|-------------------------------------|
D|-------------------------------------|-------------------------------------|
A|--7---7---7---X--X--7---7---7---X--X-|--9---9---9---X--X--9---9---9---X--X-|
E|--5---5---5---X--X--5---5---5---X--X-|--7---7---7---X--X--7---7---7---X--X-|
    Misfits,          twilight zone,      R    A    M    O    N    E    S

e|-------------------------------------|---------------------------------------|
B|-------------------------------------|---------------------------------------|
G|-------------------------------------|---------------------------------------|
D|--7---7---7---X--X--7---7---7---X--X-|--9---7---9---9--9--9--9--7---9---X--X-|
A|--5---5---5---X--X--5---5---5---X--X-|--7---7---7---7--7--7--7--5---7---X--X-|
E|-------------------------------------|---------------------------------------|
    R    A    M    O    N    E    S       Ramones!

[Bridge]
e|---------------------------------------|
B|---------------------------------------|
G|---------------------------------------|
D|--9---7---9---9--9--9--9--7---9---X--X-|
A|--7---7---7---7--7--7--7--5---7---X--X-|
E|---------------------------------------|


e| |-------------------------------------------|||---------------------------------------------||
B| *-------------------------------------------*|*---------------------------------------------*|
G|4|-------------------------------------------|||---------------------------------------------||
D|x|--9---X--X------------11---X--X------------|||---------------------------------------------||
A| *--7---X--X--9---X--X--9----X--X--11---X--X-*|*--11---------11---X--X--11---X--X--11---X--X-*|
E| |------------7---X--X-------------9----X--X-|||--9----X--X--9----X--X--9----X--X--9----X--X-||



[Verse 3]
e||---------------------------------------|--------------------------------||
B|*---------------------------------------|--------------------------------*|
G||---------------------------------------|--------------------------------||
D||--9---7---9---9--9--9--9--7---9---X--X-|--------------------------------||
A|*--7---7---7---7--7--7--7--5---7---X--X-|--9---9---9---9---7---7---7---7-*|
E||---------------------------------------|--7---7---7---7---5---5---5---5-||
     Bad boys then,   bad boys now,          Good buddies,   mau, mau, mau,
     Keep it up,      rock 'n' roll,         Good music      save your soul,

e|-------------------------------------|-------------------------------------|
B|-------------------------------------|-------------------------------------|
G|-------------------------------------|-------------------------------------|
D|-------------------------------------|-------------------------------------|
A|--7---7---7---X--X--7---7---7---X--X-|--9---9---9---X--X--9---9---9---X--X-|
E|--5---5---5---X--X--5---5---5---X--X-|--7---7---7---X--X--7---7---7---X--X-|
    Dee Dee,          he left home,       Joey    call      me on the phone,

[Chorus]
e|-------------------------------------|-------------------------------------|
B|-------------------------------------|-------------------------------------|
G|-------------------------------------|-------------------------------------|
D|-------------------------------------|-------------------------------------|
A|--7---7---7---X--X--7---7---7---X--X-|--9---9---9---X--X--9---9---9---X--X-|
E|--5---5---5---X--X--5---5---5---X--X-|--7---7---7---X--X--7---7---7---X--X-|
    Misfits,          twilight zone,      R    A    M    O    N    E    S

e|-------------------------------------|---------------|
B|-------------------------------------|---------------|
G|-------------------------------------|---------------|
D|--7---7---7---X--X--7---7---7---X--X-|---------------|
A|--5---5---5---X--X--5---5---5---X--X-|---------------|
E|-------------------------------------|---------------|
    R    A    M    O    N    E    S       Ramones!


Tabulature Legend
----------------

  X   - dead note
  |*  - repeat (x-times)

            
            
Suggest correction
Creating personal tab
Creating personal tab
You can edit any tab online and save it as your Personal.

You can edit, replace or remove any tab part or add personal notes – all changes will be seen only by you.

Personal tabs can be accessed anytime from any device, even offline.
Learn more »
Give kudos to tab author, rate the tab!
1 2 3 4 5
comments
print report bad tab
guest
You may want to rate the tab now too:
select rating
Wanna post a correction for this tab? Suggest correction