Oops, an error
Loading. Please wait.

Gießen tab

55 views 1 this week
no commentswrite comment
1 2 3 4 5
3 more votes to show rating
add to favorites
×
Save as Personal and add changes to this tab that will be seen only by you. Learn more ›
×
You can save this tab as Personal to edit and correct it or add notes. All changes will be seen only by you. Learn more »
launch autoscroll
font size
0
reset
how to read this tab
guitar tuner
edit
Autoscroll
slow
fast
+/-
esc
set tempo
stop
About this tab version
First tab up for the song. Was this info helpful? Yes No
Standard Tuning

Key: Eb major
 
Probably easier to play capo 3 or tuned down a half step but I tabbed it out standard anyways.
Finger plucked

[Intro]
*Sustain Eb on organ*

e|----------------|----------------|----------------|----------------|
B|--------4---3---|----------------|-4--------------|--------4-------|
G|----------------|-5------3-------|---------3------|-3--------------|
D|--------5---3---|----6------6----|----6--------6~-|----5-------5---|
A|---/6-----------|------6------6--|------6---------|-6----6---6---6-|
E|----------------|-4~-------------|----------------|----------------|

[Verse]
Repeat
e|----------------|----------------|----------------|----------------|
B|---------/4---3-|----------------|-4--------------|--------4-------|
G|-3--------------|-5------3-------|---------3------|-3--------------|
D|-----5---/5---3-|----6------6----|----6--------6~-|----5-------5---|
A|---6---6--------|------6------6--|------6---------|-6----6---6---6-|
E|----------------|-4~-------------|----------------|----------------|

last time end with

e|----------------|----------------|
B|---------4------|----------------|
G|-3--------------|----------3-----|
D|-----5----------|-----5----------|
A|---6---6--------|---6---6--------|
E|----------------|----------------|

[Chorus]
e|----------------|----------------|----------------|----------------|
B|----------------|----------------|----------------|----------------|
G|----1-1---1-1---|--------0---0-3-|--------5---5-5-|------10--10-10-|
D|----3-3---3-3---|--------0---0-0-|--------5---5-5-|------10--10-10-|
A|----------------|----------------|--3---3---3-----|-8--8----8------|
E|--1-----1-----x-|-/3---3---3-----|----------------|----------------|
    .     .              .   .        .   .   .       .  .    .
e|----------------|----------------|----------------|----------------|
B|--------8---8-8-|----------------|----------------|--------6~~-----|
G|--------8---8-8-|--------5---5-5-|--------7---7-7-|------7~~-------|
D|----------------|--------5---5-5-|--------8---8-8-|-----8~~--------|
A|----------------|----------------|----------------|----------------|
E|--4---4---4-----|--5---5---5-----|--6---6---6-----|----------------|
    .   .   .        .   .   .        .   .   .

[Verse]
e|----------------|----------------|----------------|----------------|
B|--------4---3---|----------------|-4--------------|--------4-------|
G|----------------|-5------3-------|---------3------|-3--------------|
D|--------5---3---|----6------6----|----6--------6~-|----5-------5---|
A|---/6-----------|------6------6--|------6---------|-6----6---6---6-|
E|----------------|-4~-------------|----------------|----------------|

Repeat
e|----------------|----------------|----------------|----------------|
B|---------/4---3-|----------------|-4--------------|--------4-------|
G|-3--------------|-5------3-------|---------3------|-3--------------|
D|-----5---/5---3-|----6------6----|----6--------6~-|----5-------5---|
A|---6---6--------|------6------6--|------6---------|-6----6---6---6-|
E|----------------|-4~-------------|----------------|----------------|

last time end with
e|----------------|----------------|
B|---------4------|----------------|
G|-3--------------|----------3-----|
D|-----5----------|-----5----------|
A|---6---6--------|---6---6--------|
E|----------------|----------------|

[Chorus]
e|----------------|----------------|----------------|----------------|
B|----------------|----------------|----------------|----------------|
G|----1-1---1-1---|--------0---0-3-|--------5---5-5-|------10--10-10-|
D|----3-3---3-3---|--------0---0-0-|--------5---5-5-|------10--10-10-|
A|----------------|----------------|--3---3---3-----|-8--8----8------|
E|--1-----1-----x-|-/3---3---3-----|----------------|----------------|
    .     .              .   .        .   .   .       .  .    .
e|----------------|----------------|----------------|----------------|
B|--------8---8-8-|----------------|----------------|-------6------6-|
G|--------8---8-8-|--------5---5-5-|--------7---7-7-|-----7------4---|
D|----------------|--------5---5-5-|--------8---8-8-|--/8------5-----|
A|----------------|----------------|----------------|----------------|
E|--4---4---4-----|--5---5---5-----|--6---6---6-----|----------------|
    .   .   .        .   .   .        .   .   .

[Outro] 
Chords play out. Still working on the outro



************************************

h = hammer on
p = pull off
b = bend
~ = vibrato
. = palm mute
x = rake

************************************

            
            
Suggest correction
Creating personal tab
Creating personal tab
You can edit any tab online and save it as your Personal.

You can edit, replace or remove any tab part or add personal notes – all changes will be seen only by you.

Personal tabs can be accessed anytime from any device, even offline.
Learn more »
Give kudos to tab author, rate the tab!
1 2 3 4 5
comments
print report bad tab
guest
You may want to rate the tab now too:
select rating
Wanna post a correction for this tab? Suggest correction