Oops, an error
Loading. Please wait.

Vals Op 8 No 2 tab

10 views 1 this week
no commentswrite comment
1 2 3 4 5
3 more votes to show rating
add to favorites
×
Save as Personal and add changes to this tab that will be seen only by you. Learn more ›
×
You can save this tab as Personal to edit and correct it or add notes. All changes will be seen only by you. Learn more »
launch autoscroll
font size
0
reset
how to read this tab
guitar tuner
edit
Autoscroll
slow
fast
+/-
esc
set tempo
stop
[A Part]
e|-------------4-|-2h4p2-0-------0-|---------5-|-4h5p4-2-------2-|----------10-|
B|---2------2----|---------0-------|-3----2h3--|---------3-------|-5-----------|
G|-*---2--5------|-----------2-----|---4-------|-----------4-----|---4--8h9----|
D|-*---2---------|---------4---2---|---4-------|-------------4---|---2---------|
A|---0-----------|-----------------|-2---------|-----------------|-------------|
E|---------------|-0---------------|-----------|-0---------------|-4-----------|
                                                           
e|-9h10p9-7---0---|------0-9-7-|-5-4-2-------|----------4-|-2h4p2---------|
B|----------9---3-|--1-2-------|-------5-4-3-|-2------2---|-------5-----5-|
G|----------------|------------|-------------|---2--5-----|---------2-----|
D|----------9---2-|----2-------|-------------|---2--------|-----------2---|
A|----------------|-0----------|-------------|-2----------|---------------|
E|-0--------------|------------|-0-----------|------------|-0-------------|


1_______________________________________________________________________________
e|---------4-|-2h4p2-------4-|-4h5p4-2-------2-|-----------------|-------0-----|
B|-4-----4---|-------0-------|---------2-------|-5h7p5-4---------|---------4-3-|
G|---5-7-----|---------1-----|-----------2-----|---------5-------|-----1-------|
D|---4-------|-----------2---|-------------4---|-----------6-4---|---2---------|
A|-----------|---------------|-----------------|---------------6-|-4-----------|
E|-4---------|-0-------------|-2---------------|-4---------------|-------------|


1_____________ 2_____________________________________________________________
e|--------------|---------5-|-4h5p4-----------|------------|-----------------|
B|-2p0----------|-3---2h3---|-------7-4-------|---2------3-|-2h3p2-0---------|
G|-----1------*-|---4-------|-----------5-----|---2--------|---------1-------|
D|-------2-0--*-|---4-------|-------------7-4-|-2----1h2---|-----------2-0---|
A|----------2---|-2---------|-----------------|------------|---------------2-|
E|-0------------|-----------|-4---------------|------------|-0---------------|

  2_______________  [B Part]
e|------0-|-5-----||-----------|-------|-------------|--------|----0-0---|-------|
B|------3-|-2-----||-----0-0---|-------|-------------|--------|----------|---2-2-|
G|--------|-------||-*---------|---2-2-|-------------|--------|----3-3---|---3-3-|
D|------2-|-2-----||-*---3-3---|---4-4-|-------------|-4------|-4------3-|-4-----|
A|-0------|-0-----||---4-----5-|-4-----|---4-5h7-5p4-|----4-4-|-1--------|-2-----|
E|------0-|-------||---1-------|-2-----|-4-----------|-5------|----------|-------|

e|-------------|--------|-----4-------|-------0-10p9-|-7-------------|
B|-------------|-7------|-7p6---6---0-|-----8--------|---7-----------|
G|-------------|----4-4-|---------7---|---6----------|-----10p8------|
D|---4-5h7-5p4-|----6-6-|-------------|-8------------|----------11-9-|
A|-4-----------|-5------|-------------|--------------|---------------|
E|-------------|--------|-------------|--------------|---------------|

e|-------|---------|-------|-----------|-----------|
B|---7-7-|---7-7---|---5-5-|---7-------|---6-6---6-|
G|---6-6-|---5-5---|---6-6-|---5-------|---6-6--6--|
D|-7-----|-6-----7-|-6-----|-6-----4-5-|-6-----5---|
A|-------|-3-------|-4-----|-6---6-----|-4----4----|
E|-------|---------|-------|-----------|-----------|
  
e|-----------|-------|-------------|--------|----0-0---|-------|
B|-----0-0---|-------|-------------|--------|----------|---2-2-|
G|-----------|---2-2-|-------------|--------|----3-3---|---3-3-|
D|-----3-3---|---4-4-|-------------|-4------|-4------3-|-4-----|
A|---4-----5-|-4-----|---4-5h7-5p4-|----4-4-|-1--------|-2-----|
E|---1-------|-2-----|-4-----------|-5------|----------|-------|

e|-------------|-------|--------------|
B|-------------|-3-----|-3-----5------|
G|---2-4-5-4p2-|---4-4-|---5-5--------|
D|-----2-------|---5-5-|---4-4--------|
A|-3-----------|-2-----|-0------------|
E|-------------|-------|--------------|

e|-------|---------|-------|-4-----5-|-2-----|---------|-2----|---|--------------------------|
B|-3-----|-0-----3-|-2-----|---3-3---|---4-4-|-6-------|------|-3-|-B-A C K  T O ------------|
G|---4-4-|-1---4---|---2-2-|---4-4---|---2-2-|-4-------|-2----|-0-|--------------------------|
D|---5-5-|-0---3---|---2-2-|---------|-------|---------|-4----|-2-|-A Part With Second Ending|
A|-------|---------|-0-----|-2-------|-3-----|-4-7p5-4-|------|---|--------------------------|
E|-3-----|-2-3-4---|-------|---------|-------|---------|----2-|-0-|--------------------------|

[C Part]
e|-----------|-----------|----------|----------|-----6---|
B|-----------|-----1-----|----1-----|----1-----|---------|
G|-*----2----|-------0---|------2---|------3-*-|-------5-|
D|-*------0--|---3-------|--2-------|--2-----*-|---4-----|
A|----3------|-0---------|----------|----------|-5-------|
E|--1--------|-----------|-3--------|-0--------|---------|


e|-----5----|-----3-----|------3---|-----5---|-----0---|
B|----------|-----------|----------|---------|---------|
G|-------5--|-------3---|--------3-|-------3-|-------1-|
D|---0------|---0-------|----------|---------|---2-----|
A|----------|-----------|----4-----|---3-----|---------|
E|-2--------|-3---------|-1--------|-0-------|-4-------|


e|----------|----------|----------|---------|----------|-----------|
B|-----3----|--1-------|----------|-----1---|-----1----|-----1-----|
G|-------2--|----3-----|-*----2---|-------0-|-------2--|-------3-*-|
D|---3------|----2-----|-*------0-|---3-----|---2------|---2-----*-|
A|-0--------|-3--------|---3------|-0-------|----------|-----------|
E|----------|-------3--|-1--------|---------|-3--------|-0---------|


e|---------|---------|--------|-----3-1-|-----3---|-----2---|---0-----|
B|---------|---------|-----0--|---------|-------5-|-------4-|---0-----|
G|-----2---|-----3---|--------|---2-----|---4-----|---2-----|-*-0-----|
D|-------0-|-------2-|------3-|---------|---------|---------|-*-------|
A|---3-----|---3-----|---5----|-0-------|-2-------|-2-------|-------2-|
E|-1-------|-3-------|-4------|---------|---------|---------|---0-3---|

[D Part]
e|-----------0-0-3-3-5-5-8-8-10-10-12-12-13-|-13----------|-12-----------|-10----------|
B|-------1-1--------------------------------|-------------|--------------|-------------|
G|-0-2-2------------------------------------|----12-12----|----10-10-----|----10-10----|
D|-2----------------------------------------|-------------|-------12-----|-------------|
A|------------------------------------------|-------12-12-|----------12--|-------11-11-|
E|------------------------------------------|-9-----------|-10-----------|-8-----------|

e|-7-------|-7-------|-----------0-0-3-3-5-5-8-8-10-10-12-12-15-|
B|---6-6---|---5-5---|-------1-1--------------------------------|
G|-----0-0-|-----0-0-|-0-2-2------------------------------------|
D|---------|---------|-2----------------------------------------|
A|---------|---------|------------------------------------------|
E|-7-------|-8-------|------------------------------------------|


1_________________________________________________2__________________________________________________

e|-15----------|-14----------|-12-------|-----------|-15-----------|-13----------|-12-----------|
B|----12-12----|----10-10----|----8-8---|-8---------|----11-11-----|----10-10----|--------------|
G|-------12-12-|-------11-11-|------9-9-|---8-8---*-|-------12--12-|-------10-10-|-----11-11----|
D|-14----------|-10----------|-9--------|-----7-7-*-|-11-----------|-12----------|--------10-10-|
A|-------------|-------------|----------|-----------|--------------|-------------|-9------------|
E|-------------|-------------|----------|-7---------|--------------|-------------|--------------|



e|-10----------|-8-----|-0h1p0------||
B|-------------|-5-1-3-|--------3-1-||
G|-----10-10---|-5-----|-3----------||
D|---------9-9-|-------|------------||
A|--10---------|-------|-3----------||
E|-------------|-------|------------||

[Back to C Part]
(with different second ending)
e|-----------|-----------|----------|----------|-----6---|
B|-----------|-----1-----|----1-----|----1-----|---------|
G|-*----2----|-------0---|------2---|------3-*-|-------5-|
D|-*------0--|---3-------|--2-------|--2-----*-|---4-----|
A|----3------|-0---------|----------|----------|-5-------|
E|--1--------|-----------|-3--------|-0--------|---------|


e|-----5----|-----3-----|-----3----|-----5---|-----0---|
B|----------|-----------|----------|---------|---------|
G|-------5--|-------3---|-------3--|-------3-|-------1-|
D|---0------|---0-------|----------|---------|-----2---|
A|----------|-----------|-----4----|-----3---|---------|
E|-2--------|-3---------|-1--------|-0-------|-4-------|


e|----------|----------|---------|---------|----------|-----------|
B|-----3----|--1-------|---------|-----1---|-----1----|-----1-----|
G|-------2--|----3-----|-----2---|-------0-|-------2--|-------3---|
D|---3------|----2-----|-------0-|---3-----|---2------|---2-------|
A|-0--------|-3--------|---3-----|-0-------|----------|-----------|
E|----------|-------3--|-1-------|---------|-3--------|-0---------|



e|-----------|-----------|----------|----------|---------|
B|-----------|-----1-----|----1-----|----1-----|---------|
G|------2----|-------0---|------2---|------3---|-----2---|
D|--------0--|---3-------|--2-------|--2-------|-------0-|
A|----3------|-0---------|----------|----------|---3-----|
E|--1--------|-----------|-3--------|-0--------|-1-------|


e|---------|---------|-----------0-1h3p1-0---|-----------5-6h8p6-5----|
B|---------|---------|-------1-3-----------3-|---4-5-6-8--------------|
G|-----2---|-----2---|---2-3---------------1-|---------------------5--|
D|-------1-|-------2-|---------------------2-|---------------------7--|
A|---3-----|---3-----|-----------------------|---------------------7--|
E|-1-------|-0-------|-0---------------------|-0----------------------|


                                                            *3 times
e|----9-10-12-13-14-------|-10-----10-----|-----2h4p2-0-----|
B|-11---------------------|---------------|----3------------|
G|------------------12-12-|----7-7--------|-*-4-----------*-|
D|------------------------|-----------8-8-|-*-----------2-*-|
A|------------------------|---------------|-----------------|
E|------------------------|---------------|-----------------|

[Back to A part]
(with second ending)


************************************

| h  Hammer-on
| p  Pull-off
 

************************************

            
            
Suggest correction
Creating personal tab
Creating personal tab
You can edit any tab online and save it as your Personal.

You can edit, replace or remove any tab part or add personal notes – all changes will be seen only by you.

Personal tabs can be accessed anytime from any device, even offline.
Learn more »
Give kudos to tab author, rate the tab!
1 2 3 4 5
comments
print report bad tab
guest
You may want to rate the tab now too:
select rating
Wanna post a correction for this tab? Suggest correction