Oops, an error
Loading. Please wait.

The Florist tab

199 views 18 this week
no commentswrite comment
1 2 3 4 5
2 more votes to show rating
add to favorites
×
Save as Personal and add changes to this tab that will be seen only by you. Learn more ›
×
You can save this tab as Personal to edit and correct it or add notes. All changes will be seen only by you. Learn more »
launch autoscroll
font size
0
reset
how to read this tab
guitar tuner
edit
Autoscroll
slow
fast
+/-
esc
set tempo
stop
[Intro] 
e|-----------------------------------------------------------------------------------------------------------
B|------------------5--------------------------------------------------------5-------------------------------
G|-----------------------------------------------------------------------------------------------------------
D|------6-----------6--------------------x-----------------------6-----------6---------------x---------------
A|------4---4---4---4---4---7------------x-----------------------4---4---4---4---4---7-------x---------------
E|---5------------------------------0----x-----4----4----4----5-------------------------0----x----4----4----4

[Verse] x2 
e|-----------------------------------------------------------------------------------------------------------
B|------------------5--------------------------------------------------------5-------------------------------
G|-----------------------------------------------------------------------------------------------------------
D|------6-----------6--------------------x-----------------------6-----------6---------------x---------------
A|------4---4---4---4---4---7------------x-----------------------4---4---4---4---4---7-------x---------------
E|---5------------------------------0----x-----4----4----4----5-------------------------0----x----4----4----4

e|-----------------------------------------------------------------------------------------------------------
B|------------------5--------------------------------------------------------5-------------------------------
G|-----------------------------------------------------------------------------------------------------------
D|------6-----------6--------------------x-----------------------6-----------6---------------x---------------
A|------4---4---4---4---4---7------------x-----------------------4---4---4---4---4---7-------x---------------
E|---5------------------------------0----x-----4----4----4----5-------------------------0----x----4----4----4

e|-----------------------------------------------------------------------------------------------------------
B|------------------5--------------------------------------------------------5-------------------------------
G|-----------------------------------------------------------------------------------------------------------
D|------6-----------6--------------------x-----------------------6-----------6---------------x---------------
A|------4---4---4---4---4---7------------x-----------------------4---4---4---4---4---7-------x---------------
E|---5------------------------------0----x-----4----4----4----5-------------------------0----x----4----4----4



Slight alteration in second last rif  
e|------------------------------------------------------------------------------------
B|-----------------------5------------------------------------------------------------
G|----------------------------------6\---4/--6\--1---1--------------------------------
D|--------6--------------6------------------------------------------------------------
A|--------4----4----4----4----4-------------------------------------------------------
E|----5-------------------------------------------------------------------------------

[Pre chorus]
e|-----------------------------------------------------------------------------------------------------------
B|---------------------5--------------------12---------------------------------------------------------------
G|-----------------------------6\--4/-------13---------------------------------------------------------------
D|---------6-----------6-------------------------------------------------------------------------------------
A|---------4---4---4---4---4---------------------------------------------------------------------------------
E|-----5-----------------------------------------------------------------------------------------------------


[Chorus]

(She continuelsy changes the strumming pattern)
(differnt each time)

e|-------4--------9--------9-------7-------5-------| 
B|-------5--------10-------9-------7-------5-------|
G|-------6--------11-------9-------8-------6-------|
D|-------6--------11-------11------9-------7-------|
A|-------4--------9--------11------9-------7-------|
E|-------4--------9--------9-------7-------5-------|

e|-------4--------9--------9-------7-------5-------| 
B|-------5--------10-------9-------7-------5-------|
G|-------6--------11-------9-------8-------6-------|
D|-------6--------11-------11------9-------7-------|
A|-------4--------9--------11------9-------7-------|
E|-------4--------9--------9-------7-------5-------|

e|-------4--------9--------9-------7-------5-------| 
B|-------5--------10-------9-------7-------5-------|
G|-------6--------11-------9-------8-------6-------|
D|-------6--------11-------11------9-------7-------|
A|-------4--------9--------11------9-------7-------|
E|-------4--------9--------9-------7-------5-------|

e|-------4--------9--------9-------7-------5-------| 
B|-------5--------10-------9-------7-------5-------|
G|-------6--------11-------9-------8-------6-------|
D|-------6--------11-------11------9-------7-------|
A|-------4--------9--------11------9-------7-------|
E|-------4--------9--------9-------7-------5-------|


[verse 2]
e|-----------------------------------------------------------------------------------------------------------
B|------------------5--------------------------------------------------------5-------------------------------
G|-----------------------------------------------------------------------------------------------------------
D|------6-----------6--------------------x-----------------------6-----------6---------------x---------------
A|------4---4---4---4---4---7------------x-----------------------4---4---4---4---4---7-------x---------------
E|---5------------------------------0----x-----4----4----4----5-------------------------0----x----4----4----4

e|-----------------------------------------------------------------------------------------------------------
B|------------------5--------------------------------------------------------5-------------------------------
G|-----------------------------------------------------------------------------------------------------------
D|------6-----------6--------------------x-----------------------6-----------6---------------x---------------
A|------4---4---4---4---4---7------------x-----------------------4---4---4---4---4---7-------x---------------
E|---5------------------------------0----x-----4----4----4----5-------------------------0----x----4----4----4

e|-------------------------------------------------------------------------------------
B|------------------------5------------------------------------------------------------
G|-----------------------------------6\---4/--6\--1---1--------------------------------
D|---------6--------------6------------------------------------------------------------
A|---------4----4----4----4----4-------------------------------------------------------
E|-----5-------------------------------------------------------------------------------

e|-----------------------------------------------------------------------------------------------------------
B|---------------------5--------------------12---------------------------------------------------------------
G|-----------------------------6\--4/-------13---------------------------------------------------------------
D|---------6-----------6-------------------------------------------------------------------------------------
A|---------4---4---4---4---4---------------------------------------------------------------------------------
E|-----5-----------------------------------------------------------------------------------------------------


[Chorus 2]
e|-------4--------9--------9-------7-------5-------| 
B|-------5--------10-------9-------7-------5-------|
G|-------6--------11-------9-------8-------6-------|
D|-------6--------11-------11------9-------7-------|
A|-------4--------9--------11------9-------7-------|
E|-------4--------9--------9-------7-------5-------|

e|---------9--------9-------7-------5-------| 
B|---------10-------9-------7-------5-------|
G|---------11-------9-------8-------6-------|
D|---------11-------11------9-------7-------|
A|---------9--------11------9-------7-------|
E|---------9--------9-------7-------5-------|

e|---------9--------9-------7-------5-------| 
B|---------10-------9-------7-------5-------|
G|---------11-------9-------8-------6-------|
D|---------11-------11------9-------7-------|
A|---------9--------11------9-------7-------|
E|---------9--------9-------7-------5-------|

e|---------9--------9-------7-------5-------| 
B|---------10-------9-------7-------5-------|
G|---------11-------9-------8-------6-------|
D|---------11-------11------9-------7-------|
A|---------9--------11------9-------7-------|
E|---------9--------9-------7-------5-------|

e|---------9--------9-------7-------5-------| 
B|---------10-------9-------7-------5-------|
G|---------11-------9-------8-------6-------|
D|---------11-------11------9-------7-------|
A|---------9--------11------9-------7-------|
E|---------9--------9-------7-------5-------|

e|---------9--------9-------7-------5-------| 
B|---------10-------9-------7-------5-------|
G|---------11-------9-------8-------6-------|
D|---------11-------11------9-------7-------|
A|---------9--------11------9-------7-------|
E|---------9--------9-------7-------5-------|

e|---------9--------9-------7-------5-------| 
B|---------10-------9-------7-------5-------|
G|---------11-------9-------8-------6-------|
D|---------11-------11------9-------7-------|
A|---------9--------11------9-------7-------|
E|---------9--------9-------7-------5-------|

e|---------9--------9-------7-------5-------| 
B|---------10-------9-------7-------5-------|
G|---------11-------9-------8-------6-------|
D|---------11-------11------9-------7-------|
A|---------9--------11------9-------7-------|
E|---------9--------9-------7-------5-------|

e|---------9--------9-------7-------5-------| 
B|---------10-------9-------7-------5-------|
G|---------11-------9-------8-------6-------|
D|---------11-------11------9-------7-------|
A|---------9--------11------9-------7-------|
E|---------9--------9-------7-------5-------|

e|---------9--------9-------7-------5-------| 
B|---------10-------9-------7-------5-------|
G|---------11-------9-------8-------6-------|
D|---------11-------11------9-------7-------|
A|---------9--------11------9-------7-------|
E|---------9--------9-------7-------5-------|

[Outro]
e|-----------------------------------------------------------------------------------------------------------
B|------------------5--------------------------------------------------------5-------------------------------
G|-----------------------------------------------------------------------------------------------------------
D|------6-----------6--------------------x-----------------------6-----------6---------------x---------------
A|------4---4---4---4---4---7------------x-----------------------4---4---4---4---4---7-------x---------------
E|---5------------------------------0----x-----4----4----4----5-------------------------0----x----4----4----4

e|-----------------------------------------------------------------------------------------------------------
B|------------------5--------------------------------------------------------5-------------------------------
G|-----------------------------------------------------------------------------------------------------------
D|------6-----------6--------------------x-----------------------6-----------6---------------x---------------
A|------4---4---4---4---4---7------------x-----------------------4---4---4---4---4---7-------x---------------
E|---5------------------------------0----x-----4----4----4----5-------------------------0----x----4----4----4

e|-----------------------------------------------------------------------------------------------------------
B|------------------5--------------------------------------------------------5-------------------------------
G|-----------------------------------------------------------------------------------------------------------
D|------6-----------6--------------------x-----------------------6-----------6---------------x---------------
A|------4---4---4---4---4---7------------x-----------------------4---4---4---4---4---7-------x---------------
E|---5------------------------------0----x-----4----4----4----5-------------------------0----x----4----4----4


Legend 
************************************

| x   Dead note
| (n) Ghost note
| h   Hammer-on
| p   Pull-off
| r   Release
| b   Bend
| /   Slide up
| \   Slide down
| ~   Vibrato

************************************
Link to actual live preformance : (https://www.youtube.com/watch?v=-JiQ7sk3jBk)

            
            
Suggest correction
Creating personal tab
Creating personal tab
You can edit any tab online and save it as your Personal.

You can edit, replace or remove any tab part or add personal notes – all changes will be seen only by you.

Personal tabs can be accessed anytime from any device, even offline.
Learn more »
Give kudos to tab author, rate the tab!
1 2 3 4 5
comments
print report bad tab
guest
You may want to rate the tab now too:
select rating
Wanna post a correction for this tab? Suggest correction