Oops, an error
Loading. Please wait.

Cette Année Là bass

version 1
version 1

Whole song

Interactive

28 views 6 this week
no commentswrite comment
1 2 3 4 5
3 more votes to show rating
add to favorites
×
Save as Personal and add changes to this tab that will be seen only by you. Learn more ›
×
You can save this tab as Personal to edit and correct it or add notes. All changes will be seen only by you. Learn more »
launch autoscroll
font size
0
reset
guitar tuner
edit
Autoscroll
slow
fast
+/-
esc
set tempo
stop
4/4
 
[Intro]                           [Verse]                           
G|--------------------------------|--------------------------------|
D|------------------3-------------|------------0-------1---1-------|
A|----------------------------0---|1-----3-------------------------|
E|--------------------1---3-------|--------------------------------|
                                                                    
G|--------------------------------|--------------------------------|
D|1-----1-----3-----3-------------|------------0-------1---1-------|
A|----------------------------0---|1-----3-------------------------|
E|--------------------1---3-------|--------------------------------|
                                                                    
G|--------------------------------|--------------------------------|
D|1-----1-----3-----3-------------|------------0-------1---1-------|
A|----------------------------0---|1-----3-------------------------|
E|--------------------1---3-------|--------------------------------|
                                                                    
G|--------------------------------|--------------------------------|
D|1-----1-----3-----3-------------|------------0-------1---1-------|
A|----------------------------0---|1-----3-------------------------|
E|--------------------1---3-------|--------------------------------| 
                                                                    
G|--------------------------------|--------------------------------|
D|1-----1-----3-----3-------------|------------0-------1---1-------|
A|----------------------------0---|1-----3-------------------------|
E|--------------------1---3-------|--------------------------------| 
                                                                    
G|--------------------------------|--------------------------------|
D|1-----1-----3-----3-------------|------------0-------1---1-------|
A|----------------------------0---|1-----3-------------------------|
E|--------------------1---3-------|--------------------------------|
 
                                  [Chorus]                          
G|--------------------------------|--------------------------------|
D|1-----1-----3-----3-------------|--------------------------------|
A|----------------------------1---|3-------------------------------|
E|--------------------1---3-------|--------------------------------| 
                                                                    
G|--------------------------------|--------------------------------|
D|--------------------------------|--------------------------------|
A|--------------------------------|--------------------------------|
E|----------------------------1-2-|3-------------------------------|
                                                                     
G|--------------------------------|--------------------------------|
D|--------------------3-----------|--------------------------------|
A|------------------3-----------4-|3-------------------------------|
E|1-------------------------------|--------------------------------|
                                                                     
G|--------------------------------|--------------------------------|
D|--------------------------------|3---------------3---------------|
A|--------------------------------|--------------------------------|
E|--------------------------------|------1---------------1---------|
 
                                  [Verse]                           
G|--------------------------------|--------------------------------|
D|3-----------------3-------------|------------0-------1---1-------|
A|----------------------------0---|1-----3-------------------------|
E|------1-----1-------1---3-------|--------------------------------|
                                                                     
G|--------------------------------|--------------------------------|
D|1-----1-----3-----3-------------|------------0-----0-1---1-------|
A|----------------------------0---|1-----3-------------------------|
E|--------------------1---3-------|--------------------------------| 
                                                                    
G|--------------------------------|--------------------------------|
D|1-----1-----3-----3-------------|------------0-------1---1-------|
A|----------------------------0---|1-----3-------------------------|
E|--------------------1---3-------|--------------------------------|
                                                                     
G|--------------------------------|--------------------------------|
D|1-----1-----3-----3-------------|------------0-------1---1-------|
A|----------------------------0---|1-----3-------------------------|
E|--------------------1---3-------|--------------------------------|
 
                                  [Bridge]                          
G|--------------------------------|--------------------------------|
D|1-----1-----3-----3-------------|--------------------------------|
A|----------------------------0---|0-------------------------------|
E|--------------------1---3-------|------3-----1---3-----3-----1---|
                                                                     
G|--------------------------------|--------------------------------|
D|--------------------------------|--------------------------------|
A|------1-----3-------3-1-3-----1-|3-----3-----1---3-----3-----1-3-|
E|3-------------------------1-3---|--------------------------------|
                                                                     
G|--------------------------------|--------------------------------|
D|0-----0---------0-----0-------0-|1-----1---1-----1-----1---------|
A|------------0---------------0---|------------1---------------1---|
E|--------------------------------|--------------------------------|
 
                                  [Verse]                           
G|--------------------------------|--------------------------------|
D|------------3-----0-1-2-3-------|------------0-------1---1-------|
A|------3-----------------------0-|1-----3-----------1-------------|
E|1-------------------------3-4---|--------------------------------|
                                                                     
G|--------------------------------|--------------------------------|
D|1-----1-----3-----3-------------|------------0-------1---1-------|
A|----------------------------0---|1-----3-------------------------|
E|--------------------1---3-------|--------------------------------|
                                                                     
G|--------------------------------|--------------------------------|
D|1-----1-----3-----3-------------|------------0-------1---1-------|
A|----------------------------0---|1-----3-------------------------|
E|--------------------1---3-------|--------------------------------|
                                                                     
G|--------------------------------|--------------------------------|
D|1-----1-----3-----3-------------|------------0-------1---1-------|
A|----------------------------0---|1-----3-------------------------|
E|--------------------1---3-------|--------------------------------|
 
                                  [Verse]                           
G|--------------------------------|--------------------------------|
D|1-----1-----3-----3-------------|------------------------------0-|
A|----------------------------1---|3---------------3---------3-4---|
E|--------------------1---3-------|--------------3-----------------|
                                                                     
G|--------------------------------|----------------0---------------|
D|1-------------------------------|--------------0-----------------|
A|--------------1-----------------|--------------------------------|
E|----------------------------1-2-|3-----------------------------3-|
                                                                     
G|--------------------------------|--------------------------------|
D|----------------3-----------1-0-|--------------------------------|
A|--------------3-----------------|3-------------------------------|
E|1-------------------------------|--------------3-----------------|
                                                                     
G|--------------------------------|--------------------------------|
D|----------------1---------------|3---------------3---------------|
A|--------------1-----------------|--------------------------------|
E|--------------------------------|------1---------------1---------|
 
                                  [Outro]                           
G|--------------------------------|--------------------------------|
D|3-----------------3-------------|------------0-------1---1-------|
A|----------------------------0---|1-----3-------------------------|
E|------1-----1-------1---3-------|--------------------------------|
                                                                     
G|--------------------------------|--------------------------------|
D|1-----1-----3-----3-------------|------------0-------1---1-------|
A|----------------------------0---|1-----3-------------------------|
E|--------------------1---3-------|--------------------------------|
                                                                    
G|--------------------------------|--------------------------------|
D|1-----1-----3-----3-------------|------------0-------1---1-------|
A|----------------------------0---|1-----3-------------------------|
E|--------------------1---3-------|--------------------------------|
                                                                    
G|--------------------------------|--------------------------------|
D|1-----1-----3-----3-------------|------------0-------1---1-------|
A|----------------------------0---|1-----3-------------------------|
E|--------------------1---3-------|--------------------------------|
                                                                    
G|--------------------0-----------|--------------------------------|
D|1-----1-----3-----0---3-0-------|--------------------------------|
A|--------------------------3-1---|--------------------------------|
E|------------------------------1-|3-----3-----1---3-----3-----1---|
                                                                    
G|--------------------------------|--------------------------------|
D|--------------------------------|--------------------------------|
A|------1-----3---------1-3-----1-|3-----3-----1---3-----3-----1-3-|
E|3-------------------------1-3---|--------------------------------|
                                                                     
G|--------------------------------|--------------------------------|
D|----------------0-----0---------|----------------1-----1-----1---|
A|--------------0-------------0---|--------------1---------------1-|
E|--------------------------------|--------------------------------|
                                                                     
G|--------------------------------|--------------------------------|
D|3-----------3-----3-------------|------------0-------1---1-------|
A|----------------------------0---|1-----3-----------1-------------|
E|------1-------------1---3-------|--------------------------------|
                                                                    
G|--------------------------------|--------------------------------|
D|1-----1-----3-----3-------------|------------0-----0-1---1-------|
A|----------------------------0---|1-----3-------------------------|
E|--------------------1---3-------|--------------------------------|
                                                                     
G|--------------------------------|--------------------------------|
D|1-----1-----3-----3-------------|------------0-------1---1-------|
A|----------------------------0---|1-----3-------------------------|
E|--------------------1---3-------|--------------------------------|
                                                                     
G|--------------------------------|--------------------------------|
D|1-----1-----3-----3-------------|------------0-------1---1-------|
A|----------------------------0---|1-----3-------------------------|
E|--------------------1---3-------|--------------------------------|
                                                                     
G|--------------------------------|--------------------------------|
D|1-----1-----3-----3-------------|------------0-------1---1-------|
A|----------------------------0---|1-----3-------------------------|
E|--------------------1---3-------|--------------------------------|
                                                                    
G|--------------------------------|--------------------------------|
D|1-----1-----3-----3-------------|------------0-----0-1---1-------|
A|----------------------------0---|1-----3-------------------------|
E|--------------------1---3-------|--------------------------------|
                                                                     
G|--------------------------------|--------------------------------|
D|1-----1-----3-----3-------------|------------0-----0-1---1-------|
A|----------------------------0---|1-----3-------------------------|
E|--------------------1---3-------|--------------------------------|
                                                                    
G|--------------------------------|--------------------------------|
D|1-----1-----3-----3-------------|------------0-----0-1---1-------|
A|----------------------------0---|1-----3-------------------------|
E|--------------------1---3-------|--------------------------------| 
                                                                    
G|--------------------------------|--------------------------------|
D|1-----1-----3-----3-------------|------------0-------1---1-------|
A|----------------------------0---|1-----3-------------------------|
E|--------------------1---3-------|--------------------------------|
                                   
G|--------------------------------|
D|1-----1-----3-----3-----3-------|
A|--------------------------------|
E|------------------1-------------| 
Suggest correction
Creating personal tab
Creating personal tab
You can edit any tab online and save it as your Personal.

You can edit, replace or remove any tab part or add personal notes – all changes will be seen only by you.

Personal tabs can be accessed anytime from any device, even offline.
Learn more »
Give kudos to tab author, rate the tab!
1 2 3 4 5
comments
print report bad tab
guest
You may want to rate the tab now too:
select rating
Wanna post a correction for this tab? Suggest correction