Oops, an error
Loading. Please wait.

Whorehouse Blues tab

version 1
version 1

Whole song

Interactive

114,615 views 108 this week
4 commentsread comments
1 2 3 4 5
x 14
add to favorites
×
Save as Personal and add changes to this tab that will be seen only by you. Learn more ›
×
You can save this tab as Personal to edit and correct it or add notes. All changes will be seen only by you. Learn more »
launch autoscroll
font size
0
reset
how to read this tab
guitar tuner
edit
Autoscroll
slow
fast
+/-
esc
set tempo
stop
Artist: Motorhead
Song: Whorehouse Blues
Album: Inferno
Tabbed By: Menno Roymans
email: mennodeman@hotmail.com

Tuning: Eb

[Riff one]

   Guitar one:
D#|--------------------------|
A#|--------------------------|
F#|--------------------------|
C#|-2----2-----------2-------|
G#|-0-0-3--0-0-0-3-0-0-5-3-4-|
D#|-----------3-----3--------|

   Guitar two (something like this, it's hard to hear):
D#|----------------------------------|
A#|----------------------------------|
F#|-----------------------------/7-5-|
C#|-5p2--------------5p2--------/7-5-|
G#|------5-3-0-3-0-3------5-3-0------|
D#|----------------------------------|

repeat

   [Riff two:]
   Guitar one & two:
D#|-------------------------------------------------|
A#|-------------------------------------------------|
F#|-2----4-2-5-2-4---2--4-2-5-2-4-------------------|
C#|-0-0--0-0-0-0-0-0-0--0-0-0-0-0-------------------|
G#|-------------------------------------------------|
D#|-------------------------------------------------|


then play:

1x Riff one
1x Riff two
1x Riff one
1x Riff two


[Riff three]

Guitar one & two
D#|------------------------------|
A#|------------------------------|
F#|------------------------------|
C#|---------2-2-----------2-2----|
G#|-22------2-2----2-2----2-2----|
D#|-0--0-3-4---3-4-0-0-3-4---3-4-|

[Then play]

1x Riff one
1x Riff two
1x Riff one
1x Riff two


[Riff 3b]

Guitar one & two
D#|-------------------------------|
A#|-------------------------------|
F#|-------------------------------|
C#|-------------------------------|
G#|-2-2-4-2-5-2-4-2-2-4-2-5-2-----|
D#|-0-0-0-0-0-0-0-0-0-0-0-0-0-3-4-|


[Then play]

1x Riff one
1x Riff two
1x Riff one
1x Riff two
1x Riff 3b
1x Riff one


[Solo]

Guitar one play:
1x Riff two
1x Riff one
1x Riff two
1x Riff one
1x Riff 3b
1x Riff one
1x Riff two
1x Riff one
1x Riff two
1x Riff one
1x Riff 3b
1x Riff one

Guitar two solo in Ab, use the scales in the 5th and 12th fret

[Then play]

1x Riff two
1x Riff one
1x Riff two
1x Riff one
1x Riff 3b
1x Riff one

Mouthharp solo, guitars play repeat above

[Then play]

1x Riff two (end with strumming the Cb chord twice)
1x Riff one
1x Riff two (end with strumming the Cb chord twice)
1x Riff one
1x Riff 3b (end with strumming the Db chord once)

end with something like this:

D#|------------------------|
A#|------------------------|
F#|-------------------2----|
C#|-2---2-------------2----|
G#|-0-0-3--0-0-0-3-0--0----|
D#|-----------3-----3------|

That's it, it was pretty hard, took me a while and it aint perfect but it gets you ahead.

************************************

| p  Pull-off
| /  Slide up

************************************

For comments mail to mennodeman@hotmail.com

            
            
Suggest correction
Creating personal tab
Creating personal tab
You can edit any tab online and save it as your Personal.

You can edit, replace or remove any tab part or add personal notes – all changes will be seen only by you.

Personal tabs can be accessed anytime from any device, even offline.
Learn more »
comments
print report bad tab
4 comments total. Showing first comments.
0 reply
i_am_metalhead 120 May 02, 2006 04:19 PM

not that good

+1 reply
ZanasCross 690 Apr 15, 2008 04:47 PM

I thought it was pretty good... it got me on the right track and I filled in the gaps.

0 reply
genesis91190 10 Dec 10, 2009 10:07 PM

instead of this :
------------------|
------------------|
------------------|
-2--2-------2-----|
-0030-0-030-0-534-|
-------3---3------|

try :
------------------|
------------------|
------------------|
-2--2-------2-----|
-0030-0-030-0-034-|
-------3---3------|

guest
You may want to rate the tab now too:
select rating
Wanna post a correction for this tab? Suggest correction