Oops, an error
Loading. Please wait.

La Guitarra tab

version 1
version 1

Whole song

Interactive

7 views 1 this week
no commentswrite comment
1 2 3 4 5
3 more votes to show rating
add to favorites
×
Save as Personal and add changes to this tab that will be seen only by you. Learn more ›
×
You can save this tab as Personal to edit and correct it or add notes. All changes will be seen only by you. Learn more »
launch autoscroll
font size
0
reset
how to read this tab
guitar tuner
edit
Autoscroll
slow
fast
+/-
esc
set tempo
stop
[INTRO]

e|-------------------------0--------0-4----------------------------------|
B|--------------0-0-0--2-4---2----2--------------------------------0-----|
G|----------1-2----------------1---------1-2-2-1-1-------------1-3-------|
D|---2-2-2------------------------------------------4-4-4-4-4------------|
A|-----------------------------------------------------------------------|
E|-----------------------------------------------------------------------|

[Verse 1]

(0:11)

B                E
 Tuve un problema de díficil solución
        A
en una época díficil de mi vida
  G#m                        F#m
estaba entre la espada y la pared
       A                         B
y aguantando la opinión de mi familia

       E
yo quería una vida normal
          A
no me gustaban los horarios de oficina
        G#m
y mi espíritu rebelde se reía
     C#m                       C#
del dinero, del lujo y del confort


[Pre-chorus]

(0:34)

     F#m             B
y tuve una revelación
G#m                   C#m
ya se quiero en esta vida
         A            G#m
voy a seguir mi vocación
        F#m                    B
será la musica mi techo y mi comida


[Chorus]

(0:44)

       E                  B
porque yo no quiero trabajar
                   C#m                  G#m
no quiero ir a estudiar, no me quiero casar
         A                        E
quiero tocar la guitarra todo el día
          F#m                    B
y que la gente se enamore de mi voz
       E                  B
porque yo no quiero trabajar
                   C#m                  G#m
no quiero ir a estudiar, no me quiero casar
           A                        E
y en la cabeza tenía la voz de mi viejo
         F#m                    B
que me sonaba como un rulo de tambor...

E                    B                  C#m
vos mejor que te afeités, mejor que madurés
              G#m           A                         E
mejor que laburés ya me canse de que me tomes la cerveza
          F#m                        B
te voy a dar con la guitarra en la cabeza
E                    B                  C#m
vos mejor que te afeités, mejor que madurés
              G#m           A                        E
mejor que laburés ya me canse de ser tu fuente de dinero
        F#m                        B
voy a ponerte esa guitarra de sombrero

[Solo]

(1:31)   
       E             A             G#m            C#m       C#
e|--------0-0-0-0---0--------------------------------------0---1-----|
B|--0-2-4---------4----------0-2-2-2-2-2-0----------4---4----2-------|
G|--------------------1--1-2---------------2-1-1------1--------------|
D|-----------------------------------------------4-------------------|
A|-------------------------------------------------------------------|
E|-------------------------------------------------------------------|

[Pre-chorus]

(1:42)

F#m             B
y tuve una revelación
G#m                   C#m
ya se quiero en esta vida
         A            G#m
voy a seguir mi vocación
        F#m                    B
será la musica mi techo y mi comida


[Chorus]

(1:53)

       E                  B
porque yo no quiero trabajar
                   C#m                  G#m
no quiero ir a estudiar, no me quiero casar
         A                        E
quiero tocar la guitarra todo el día
          F#m                    B
y que la gente se enamore de mi voz
       E                  B
porque yo no quiero trabajar
                   C#m                  G#m
no quiero ir a estudiar, no me quiero casar
           A                        E
y en la cabeza tenía la voz de mi viejo
         F#m                    B
que me sonaba como un rulo de tambor...

E                    B                  C#m
vos mejor que te afeités, mejor que madurés
              G#m           A                         E
mejor que laburés ya me canse de que me tomes la cerveza
          F#m                        B
te voy a dar con la guitarra en la cabeza
E                    B                  C#m
vos mejor que te afeités, mejor que madurés
              G#m           A                        E
mejor que laburés ya me canse de ser tu fuente de dinero
        F#m                        B
voy a ponerte esa guitarra de sombrero


[Outro]

e|-----------0--------------0--------------0--------------0-----------|
B|--0--0-2-4---4-2-0--0-2-4---4-2-0--0-2-4---4-2-0--0-2-4---4-2-0-----|
G|--------------------------------------------------------------------|
D|--------------------------------------------------------------------|
A|--------------------------------------------------------------------|
E|--------------------------------------------------------------------|

e|--0---0-------------------------------------------------------------|
B|----2---2-0-2-------------------------------------------------------|
G|--------------2-1---------------------------------------------------|
D|------------------4-2-----------------------------------------------|
A|--------------------------------------------------------------------|
E|--------------------------------------------------------------------|

            
            
Suggest correction
Creating personal tab
Creating personal tab
You can edit any tab online and save it as your Personal.

You can edit, replace or remove any tab part or add personal notes – all changes will be seen only by you.

Personal tabs can be accessed anytime from any device, even offline.
Learn more »
Give kudos to tab author, rate the tab!
1 2 3 4 5
comments
print report bad tab
guest
You may want to rate the tab now too:
select rating
Wanna post a correction for this tab? Suggest correction