Oops, an error
Loading. Please wait.

The Game tab

version 5
version 5
1,793 views 3 this week
3 commentsread comments
1 2 3 4 5
2 more votes to show rating
add to favorites
×
Save as Personal and add changes to this tab that will be seen only by you. Learn more ›
×
You can save this tab as Personal to edit and correct it or add notes. All changes will be seen only by you. Learn more »
launch autoscroll
font size
0
reset
how to read this tab
guitar tuner
backing track
0:00
0:00
edit
Autoscroll
slow
fast
+/-
esc
set tempo
stop
Author
Difficulty
It's absolutely pathetic that everybody who tried tabbing this song couldn't find the
chords.. What the hell? It's about the easiest song to play.. Great song, but easy. No
this is 100% correct. I'm a huge Motorhead freak.. And Triple H freak, so I know this is right.

Tuning: Standard
Distortion : Heavy (Both Guitars)

G1: Lemmy
G2: Other Guy (Don't Know His Name)

I listed both parts, because depending on what type of guitar you play.. You might want
play one rhythm rather than the other. Especially if you have your guitar tuned to Drop
and for some reason you don't want to tune to standard.. You'd want to play G2.. If it's 
G1 or G2.

Rhy. 1 (Intro)(G1)

----------------------------------|
----------------------------------|
----------------------------------|
-2-------2----2-2-------2----12/1-|
-2-------2----2-2-------2----12/1-|
-0-------0----0-0-------0----12/1-|


Rhy. 1 (Intro) (G2)

----------------------------------|
----------------------------------|
----------------------------------|
-0-------0---0-0--------0----12/1-|
-0-------0---0-0--------0----12/1-|
-0-------0---0-0--------0----12/1-|


Rhy. 2 (Bridge) (G1)

-------------------------------------------------------|
-------------------------------------------------------|
-------------------------------------------------------|
-222--222-----222--222-----222--222-----222--222--12/1-|
-222--222-----222--222-----222--222-----222--222--12/1-|
-000--000-----000--000-----000--000-----000--000--12/1-|

Fit This Part In Right ^
Rhy. 2 (Bridge) (G2)

-------------------------------------------------------|
-------------------------------------------------------|
--------------------121212-121212-(               }----|
--------------------121212-121212-(Let Ring & Bend)----|
--------------------121212-121212-(               }----|
-------------------------------------------------------|

Rhy. 3 (Chorus: "It's All About the Game!..") (G1)

------------------------------------|
------------------------------------|
----------------------  (Repeat 6-8-| Times, You Can Do That)
-222-5-2----222-10-9----------------|
-222-5-2----222-10-9----------------|
-000-3-0----000--8-7----------------|


Rhy. 3 (Chorus: "It's All About the Game!..") (G2)

----------------------|
----------------------|
----------------------|
-222-5-2----222-10-9--|
-222-5-2----222-10-9--|
-222-5-2----222-10-9--|


Rhy. 4 (Bridge 2: "Look Over Your Shoulder..") (G1)

-----------------|
-----------------|
-----------------|
-2---5-7-2---7-5-|
-2---5-7-2---7-5-|
-0---3-5-0---5-3-|


Rhy. 4 (Bridge 2: "Look Over Your Shoulder..") (G2)

-----------------|
-----------------|
-----------------|
-2---5-7-2---7-5-|
-2---5-7-2---7-5-|
-2---5-7-2---7-5-|


(I Know There's a Accentuated Note or Two that Is In This Next Part.. But There's Only 2
So I Don't Know How to Tab It.. You Can Also Figure That Out)

Rhy. 5 (Interlude) (G1)

---------------------|
---------------------|
---------------------|
-2-------------------| (Repeat Four Times Then Go Back to Rhy. 2 (G1)
-2-------------------|
-0-------------------|


Rhy. 5 (Interlude) (G2)

---------------------|
---------------------|        (Repeat Several Times)
---------------------|
-222-8-222-8/9-8-----|
-222-8-222-8/9-8-----|
-222-8-222-8/9-8-----|


G2 Repeats Rhy. 5 Several Times And Then He Does This

-----------------------------|
-----------------------------|
-----------------------------|
14(letring)--/1--------------| (Let 14 Ring, Then Pick Slide to 1)
-----------------------------|
-----------------------------|


Now Both G1 !AND! G2 Go Back to "Rhy. Fig 2 (G1)"

Then Just Repeat the Rest of the Song.. Make Your Own Ending.. Because You Can't Fade
@ a Live Performance. (Well You Can, But It'd Suck)

Any Questions/Comments. E-mail me (godsmack-101@hotmail.com)

"We Are Motorhead!.... And We're Gonna Kick Your Ass!"   -Rock On- m/

            
            
Suggest correction
Creating personal tab
Creating personal tab
You can edit any tab online and save it as your Personal.

You can edit, replace or remove any tab part or add personal notes – all changes will be seen only by you.

Personal tabs can be accessed anytime from any device, even offline.
Learn more »
Give kudos to tab author, rate the tab!
1 2 3 4 5
comments
print report bad tab
3 comments total.
0 reply
Oasis-fanatic 130 Jan 06, 2007 11:34 AM

more than likely in Eb

-1 reply
Raylop 46 Dec 09, 2008 03:02 PM

i want the f**** solo

+1 reply
Raylop 46 Dec 09, 2008 03:12 PM

solo!!!!

guest
You may want to rate the tab now too:
select rating
Wanna post a correction for this tab? Suggest correction