Oops, an error
Loading. Please wait.

En El Muelle De San Blás chords

version 2
version 2

Whole song

Interactive

by Maná
5,111 views 12 this week
no commentswrite comment
1 2 3 4 5
1 last vote to show rating
add to favorites
×
Save as Personal and add changes to this tab that will be seen only by you. Learn more ›
×
You can save this tab as Personal to edit and correct it or add notes. All changes will be seen only by you. Learn more »
launch autoscroll
font size
0
reset
transpose
0
reset
display chords
guitar tuner
edit
Autoscroll
slow
fast
+/-
esc
set tempo
stop
Author
Difficulty
Strumming
There is no strumming pattern for this song yet. and get +5 IQ
En el muelle de San Blas



Intro



      Em                        A           
e|-----------0-----------------0------------|
B|------0--------0---------2--------2-------|
G|----0---0----0---0-----2---2----2---2-----|
D|------------------------------------------|
A|--------------------0---------------------|
E|-0----------------------------------------|


|---------2-------------------3----------|
|-----3--------3-----------0-------0-----|
|---2---2----2---2-------0---0---0---0---|
|-0--------------------------------------|
|----------------------------------------|
|---------------------3------------------|


 Em                 A
Ella despidió a su amor
                  D
el partió en un barco en el muelle
        G
de San Blas


Em                A                   D
El juró que volvería y empapada en llanto
                  G
ella juró que esperaría

Em                         A
miles de lunas de lunas pasaron
                 D                       G
y siempre ella estaba en el muelle, esperando

Em                  A
muchas tardes se anidaron
          D                        G
se anidaron en su pelo y en sus labios 


Em                   A
Llevaba el mismo vestido
       D                               G
y por si el volviera no se fuera a equivocar

  Em                   A
los cangrejos le mordían
       D                          G
sus ropajes, su tristeza y su ilusión

   Em                A
y el tiempo se escurrió
       D                         G
y sus ojos se le llenaron de amaneceres
   Em              A
y del mar se enamoró
       D                         G
y su cuerpo se enraizó en el muelle 



Coro.....


Cambio a Esto

e|-----------0----|-------------|-----------0--|-----------|
B|-------3--------|----3--------|------2-------|----2------|
G|-----2---2------|--2---2------|----2----2----|--2---2----|
D|--0-------------|-------------|--------------|-----------|
A|----------------|-------------|--4-----------|-----------|
E|----------------|-------------|--------------|-----------|


                                                                    
e|-----------0----|-------------|-----------0--|-----------|
B|-------3--------|-----3-------|------2-------|----2------|
G|-----2---2------|---2---2-----|----2----2----|--2---2----|
D|----------------|-------------|--------------|-----------|
A|--2-------------|-------------|--4-----------|-----------|
E|----------------|-------------|--------------|-----------|


 D                   A
Sola, sola, en el olvido
 D                   A
sola, sola con su espíritu
 D                        A
sola, sola con su amor el mar
 G                        A                      
sola, en el muelle de San Blas 







Em                 A
Su cabello se blanqueó
       D                          G     
pero ningún barco a su amor le devolvía
Em                   A 
y en el pueblo le decían
      D                          G      
le decían la loca del muelle de San Blas
Em              A
y una tarde de abril
      D                        G
la intentaron trasladar al manicomio
Em                 A
nadie la pudo arrancar
       D                     G
y del mar nunca jamás la separaron 




D                   A
Sola, sola, en el olvido
D                    A
sola, sola con su espíritu
D                       A 
sola, sola con su amor el mar
G                       A   
sola, en el muelle de San Blas 



Em A D G 


Outro




Se quedo, se quedo  Sola Sola...
Se quedo, Se quedo  con el sol y con el mar...


e|--5----5----|--x--5----x--5----x--x--|----x--5------5----|
B|--5----5----|--x--5----x--5----x--x--|----x--5------5----|
G|--7----7----|--x--7----x--7----x--x--|----x--7------7----|
D|--7----7----|--x--7----x--7----x--x--|----x--7------7----|
A|--5----5----|--x--5----x--5----x--x--|----x--5------5----|
E|--5----5----|--x--5----x--5----x--x--|----x--5------5----|


                                                                        
|--x--5----x--5----x--x--|----x--3----3----|--x--3----x--3----x--x--|
|--x--5----x--5----x--x--|----x--3----3----|--x--3----x--3----x--x--|
|--x--7----x--7----x--x--|----x--4----4----|--x--4----x--4----x--x--|
|--x--7----x--7----x--x--|----x--5----5----|--x--5----x--5----x--x--|
|--x--5----x--5----x--x--|----x--5----5----|--x--5----x--5----x--x--|
|--x--5----x--5----x--x--|----x--3----3----|--x--3----x--3----x--x--|


                                                                     
|----x--3--------3----|--x--3----x--3----x--x--|
|----x--3--------3----|--x--3----x--3----x--x--|
|----x--4--------4----|--x--4----x--4----x--x--|
|----x--5--------5----|--x--5----x--5----x--x--|
|----x--5--------5----|--x--5----x--5----x--x--|
|----x--3--------3----|--x--3----x--3----x--x--| X 4




Se quedo ahi, se quedo hasta el fin 
se quedo ahi, se quedo en el muelle de san blas..
Sola sola se quedo....


e|--x--9---x---9---|--x--10--x--10--10--12--|----x--9-----x----9-----|
B|--x--10--x---10--|--x--10--x--10--10--10--|----x--10----x----10----|
G|--x--9---x---9---|--x--9---x--9---9---9---|----x--9-----x----9-----|
D|--x--------------|------------------------|----x-------------------|
A|--x--------------|------------------------|----x-------------------|
E|--x--------------|------------------------|----x-------------------|


                                                                             
|--x--10--x----10----10--12--|--x--3----x--3--|--x--2--x----2----2--0--|
|--x--10--x----10----10--10--|--x--3----x--3--|--x--3--x----3----3--3--|
|--x--9---x----9-----9---9---|--x--0----x--0--|--x--0--x----0----0--0--|
|----------------------------|--x-------------|------------------------|
|----------------------------|--x-------------|------------------------|
|----------------------------|--x-------------|------------------------|


                                                                         
|----x--3----x----3----|--x--2--x----2----2--0--|
|----x--3----x----3----|--x--3--x----3----3--3--|
|----x--0----x----0----|--x--0--x----0----0--0--|
|----x-----------------|------------------------|
|----x-----------------|------------------------|
|----x-----------------|------------------------| X 4



Esta Cancion es Exelente 
Una obra de arte
Escuchenla para que agarren el ritmo


            
            
Suggest correction
Creating personal tab
Creating personal tab
You can edit any tab online and save it as your Personal.

You can edit, replace or remove any tab part or add personal notes – all changes will be seen only by you.

Personal tabs can be accessed anytime from any device, even offline.
Learn more »
Give kudos to tab author, rate the tab!
1 2 3 4 5
comments
print report bad tab
guest
You may want to rate the tab now too:
select rating
Wanna post a correction for this tab? Suggest correction