Oops, an error
Loading. Please wait.

Un Jour En France bass

version 2
version 2

Whole song

Interactive

6,681 views 15 this week
2 commentsread comments
1 2 3 4 5
x 3
add to favorites
×
Save as Personal and add changes to this tab that will be seen only by you. Learn more ›
×
You can save this tab as Personal to edit and correct it or add notes. All changes will be seen only by you. Learn more »
launch autoscroll
font size
0
reset
guitar tuner
backing track
0:00
0:00
edit
Autoscroll
slow
fast
+/-
esc
set tempo
stop
Author
Difficulty
édité par Gart78

Noir Désir
Un jour en France


commencer en même temps que la batterie
G-------------------------------------------------------------|
D-------------------------------------------------------------|
A-------------------------------------------------------------|
E-1-1-1-1-1-1-1-5-6-6-6-6-5-5-5-5-10-10-10-10-5-5-5-5-6-6-6-6-|

G------------------------------------------------------------|
D------------------------------------------------------------|
A------------------------------------------------------------|
E-1-1-1-1-10-10-10-10-10-10-10-5-6-6-6-6-5-5-5-5-10-10-10-10-|

G-------------------------|
D-------------------------|
A-------------------------|
E-5-5-5-5-6-6-6-6-5-5-5-5-|

ce riff est a répéter pendant tout le morceau

            
            
Suggest correction
Creating personal tab
Creating personal tab
You can edit any tab online and save it as your Personal.

You can edit, replace or remove any tab part or add personal notes – all changes will be seen only by you.

Personal tabs can be accessed anytime from any device, even offline.
Learn more »
Give kudos to tab author, rate the tab!
1 2 3 4 5
comments
print report bad tab
2 comments total.
0 reply
Natsuka 496 Oct 30, 2009 08:14 AM

Ta tablature est correcte ^^

Après selon comment on a envie de jouer, il est possible d'utiliser la deuxième corde, voir la troisième si l'envie nous en chante :)

Je te met 5 sur 5 ^^ je pense poster sous peu une tablature de " a ton étoile " à la basse, passe de temps en temps :)

0 reply
Flexo 377 Jan 23, 2016 11:04 AM

La tablature est correcte mais un peu dure à lire.

A# A D A A# A F F
G|---------------------------------------------------------------------|
D|---------------------------------------------------------------------|
A|---------------------------------------------------------------------|
E|-6-6-6-6-5-5-5-5-10-10-10-10-5-5-5-5-6-6-6-6-5-5-5-5-1-1-1-1-1-1-1-5-|

A# A D A A# F D D
G|----------------------------------------------------------------------------|
D|----------------------------------------------------------------------------|
A|----------------------------------------------------------------------------|
E|-6-6-6-6-5-5-5-5-10-10-10-10-5-5-5-5-6-6-6-6-1-1-1-1-10-10-10-10-10-10-10-5-|

guest
You may want to rate the tab now too:
select rating
Wanna post a correction for this tab? Suggest correction