Oops, an error
Loading. Please wait.

Rattlesnake Shake bass

version 1
version 1

Whole song

Interactive

3,685 views 3 this week
no commentswrite comment
1 2 3 4 5
1 last vote to show rating
add to favorites
×
Save as Personal and add changes to this tab that will be seen only by you. Learn more ›
×
You can save this tab as Personal to edit and correct it or add notes. All changes will be seen only by you. Learn more »
launch autoscroll
font size
0
reset
guitar tuner
backing track
0:00
0:00
edit
Autoscroll
slow
fast
+/-
esc
set tempo
stop
Author
Difficulty
Artist:Motley Crue
Song:Rattlesnake Shake
Album:Dr.Feelgood
Bassist:Nikki Sixx
Tabber:Dev Fuld

This is one of my all time favorite Motley Crue songs, I'm suprised it hasn't been tabbed 
yet.

Key: 
x = times a number
b = bend
/ = slide up
* = let it ring

*Guitar Intro*

Intro
F:-----------------|----|-------|-------|-------|-------|
C:-----------------|----|-------|-------|-------|-------|
G:17-17-17-17-17-17|5x64|-------|-------|-------|-------|
D:-----------------|----|5-3-5-5|5-3-5-5|5-3-5-5|5-3-5-5|

Verse
F:-------|-------|-------|-------|-------|-------|-------|-------|
C:-------|-------|-------|-------|-------|-------|-------|-------|
G:-------|-------|-------|-------|-------|-------|-------|-------|
D:5-3-5-5|5-3-5-5|5-3-5-5|5-3-5-5|5-3-5-5|5-3-5-5|5-3-5-5|5-3-5-5|

Pre-Chorus
F:-----|
C:-----|
G:---7*|
D:0*---|

Chorus (version 1)
F:--------------|--------------|--------------|--------------|
C:-----5757-----|-----5757-----|-----5757-----|-----5757-----|
G:----------5x16|----------5x16|----------5x16|----------5x16|
D:5x10----------|5x10----------|5x10----------|5x10----------|

Chorus (version 2)
F:---------|---------|---------|---------|
C:---------|---------|---------|---------|
G:-----5x16|-----5x16|-----5x16|-----5x16|
D:5x16-----|5x16-----|5x16-----|5x16-----|

After Chorus
F:---------------------|
C:---------------------|
G:------7b*-7b-7b-7b-7b|
D:0*-0*----------------|

Verse

Pre-Chorus

Chorus

After Chorus

Bass Soloish thingy
F:----------------|----------------|
C:----7-----------|----7-----------|
G:------------3434|------------3535| You have to repeat these until you come to the 
D:5-5---0-3-3-----|5-5---0-3-3-----| after chorus

After Chorus

Chorus

2nd Chorus
F:-------------------------|
C:-----------------4-5*-6-7|
G:----4-5*-6-7-5-5---------|
D:5-5----------------------|

End
F:----------------|----------------|
C:----------------|----------------|
G:5x64-17-17-17-17|5x64-17-17-17-17|
D:----------------|----------------|

That's it. This is a radical Motley Crue song, so turn it up, play it loud and play it with 
attitude. It is in order already so you shouldn't have trouble with that. Any questions 
or comments, e-mail me at rocklvson@yahoo.com

            
            
Suggest correction
Creating personal tab
Creating personal tab
You can edit any tab online and save it as your Personal.

You can edit, replace or remove any tab part or add personal notes – all changes will be seen only by you.

Personal tabs can be accessed anytime from any device, even offline.
Learn more »
Give kudos to tab author, rate the tab!
1 2 3 4 5
comments
print report bad tab
guest
You may want to rate the tab now too:
select rating
Wanna post a correction for this tab? Suggest correction