Oops, an error
Loading. Please wait.

Violent Saint bass

version 1
version 1

Whole song

Interactive

159 views 1 this week
no commentswrite comment
1 2 3 4 5
3 more votes to show rating
add to favorites
×
Save as Personal and add changes to this tab that will be seen only by you. Learn more ›
×
You can save this tab as Personal to edit and correct it or add notes. All changes will be seen only by you. Learn more »
launch autoscroll
font size
0
reset
guitar tuner
edit
Autoscroll
slow
fast
+/-
esc
set tempo
stop
This song has hard timing when first being learnt but is rather easy.

Intro: Guitar Scraps Strings (Bass May Join In)

Verse:

F----------------------|
C----------------------|   X4
G----------------------|
C0~------0-0-0-0-------|

F----------------|
C----------------|
G----------------|
C0-0-0-0000-0-00-|

Pre-Chorus:

F--------------------|
C--------------------|    X8
G--------------------|
C0-0-0-0000-0-00-----|

Chorus:

F----------------------------------|
C----------------------------------|   x2
G----------------------------------|
C5555555588888888/70000000011113333

Repeat Verse

Repeat Pre-Chorus

Repeat Chorus

Bridge:

F-------------------|
C-------------------|  X3
G-------------------|
C1-0-0--0-0-1-0-0---|

F-------------------|
C-------------------|
G-------------------|
C1-0-0--0-0-1-0-0-0-|

F------------------------------------------------|
C-----------    X8 (On 8th Time Fade Out On G-5)-|
G------------------------------------------------|
C0-0-0-0-0-0-------------------------------------|

Outro (Last Choruses)

F-------------------------------------|
C-------------------------------------|     X2
G-------------------------------------|
C555-555-888-888-000-000-111-333------|

F----------------------------------|
C----------------------------------|   x2
G----------------------------------|
C5555555588888888/70000000011113333

F--
C--
G--
C-5

Cheers Please Rate and Look At My Other Tabs

            
            
Suggest correction
Creating personal tab
Creating personal tab
You can edit any tab online and save it as your Personal.

You can edit, replace or remove any tab part or add personal notes – all changes will be seen only by you.

Personal tabs can be accessed anytime from any device, even offline.
Learn more »
Give kudos to tab author, rate the tab!
1 2 3 4 5
comments
print report bad tab
guest
You may want to rate the tab now too:
select rating
Wanna post a correction for this tab? Suggest correction