Oops, an error
Loading. Please wait.

Faller tab

53,900 views 33 this week
1 commentread comment
1 2 3 4 5
x 16
add to favorites
×
Save as Personal and add changes to this tab that will be seen only by you. Learn more ›
×
You can save this tab as Personal to edit and correct it or add notes. All changes will be seen only by you. Learn more »
launch autoscroll
font size
0
reset
how to read this tab
guitar tuner
edit
Autoscroll
slow
fast
+/-
esc
set tempo
stop
Author
[Intro]
  G                                 C       G        D/F#
E|----------------|----------------|----------------|----------------|----------------|
B|--0-------0-----|--0-------0-----|--1-------0-----|--3-------3-----|--3-------3-----|
G|------0-------0-|------0-------0-|------0-------0-|------2-------2-|------2-------2-|
D|----0-------0---|----0-------0---|----2-------0---|----0-------0---|----0-------0---|
A|----------------|----------------|3---------------|----------------|----------------|
E|3-------3-------|3-------3-------|--------3-------|2-------2-------|2-------2-------|

[Verse]
  G                C                G
E|----------------|----------------|----------------|----------------|
B|--0-------0-----|--1-------1-----|--0-------0-----|--0-------0-----|
G|------0-------0-|------0-------0-|------0-------0-|------0-------0-|
D|----0-------0---|----2-------2---|----0-------0---|----0-------0---|
A|----------------|3-------3-------|----------------|----------------|
E|3-------3-------|----------------|3-------3-------|3-------3-------|

  C                G                Em
E|----------------|----------------|----------------|----------------|
B|--1-------1-----|--0-------0-----|--0-------0-----|--0-------0-----|
G|------0-------0-|------0-------0-|------0-------0-|------0-------0-|
D|----2-------2---|----0-------0---|----2-------2---|----2-------2---|
A|3-------3-------|----------------|----------------|----------------|
E|----------------|3-------3-------|0-------0-------|0-------0-------|

  C                G                D/F#
E|----------------|----------------|----------------|----------------|
B|--1-------1-----|--0-------0-----|--3-------3-----|--3-------3-----|
G|------0-------0-|------0-------0-|------2-------2-|------2-------2-|
D|----2-------2---|----0-------0---|----0-------0---|----0-------0---|
A|3-------3-------|----------------|----------------|----------------|
E|----------------|3-------3-------|2-------2-------|2-------2-------|

  Em               C                G
E|----------------|----------------|----------------|----------------|
B|--0-------0-----|--1-------1-----|--0-------0-----|--0-------0-----|
G|------0-------0-|------0-------0-|------0-------0-|------0-------0-|
D|----2-------2---|----2-------2---|----0-------0---|----0-------0---|
A|----------------|3-------3-------|----------------|----------------|
E|0-------0-------|----------------|3-------3-------|3-------3-------|

  Am                                D7
E|----------------|----------------|----------------|----------------|
B|--1-------1-----|--1-------1-----|--1-------1-----|--1-------1-----|
G|------2-------2-|------2-------2-|------2-------2-|------2-------2-|
D|----2-------2---|----2-------2---|----0-------0---|----0-------0---|
A|0-------0-------|0-------0-------|0-------0-------|0-------0-------|
E|----------------|----------------|----------------|----------------|

[Bridge]
  C       G        D/F#
E|----------------|----------------|----------------|
B|--1-------0-----|--3-------3-----|--3-------3-----|
G|------0-------0-|------2-------2-|------2-------2-|
D|----2-------0---|----0-------0---|----0-------0---|
A|3---------------|----------------|----------------|
E|--------3-------|2-------2-------|2-------2-------|

[Verse]
  G                C                G
E|----------------|----------------|----------------|----------------|
B|--0-------0-----|--1-------1-----|--0-------0-----|--0-------0-----|
G|------0-------0-|------0-------0-|------0-------0-|------0-------0-|
D|----0-------0---|----2-------2---|----0-------0---|----0-------0---|
A|----------------|3-------3-------|----------------|----------------|
E|3-------3-------|----------------|3-------3-------|3-------3-------|

  C                G                Em
E|----------------|----------------|----------------|----------------|
B|--1-------1-----|--0-------0-----|--0-------0-----|--0-------0-----|
G|------0-------0-|------0-------0-|------0-------0-|------0-------0-|
D|----2-------2---|----0-------0---|----2-------2---|----2-------2---|
A|3-------3-------|----------------|----------------|----------------|
E|----------------|3-------3-------|0-------0-------|0-------0-------|

  C                G                D/F#
E|----------------|----------------|----------------|----------------|
B|--1-------1-----|--0-------0-----|--3-------3-----|--3-------3-----|
G|------0-------0-|------0-------0-|------2-------2-|------2-------2-|
D|----2-------2---|----0-------0---|----0-------0---|----0-------0---|
A|3-------3-------|----------------|----------------|----------------|
E|----------------|3-------3-------|2-------2-------|2-------2-------|

  Em               C                G
E|----------------|----------------|----------------|----------------|
B|--0-------0-----|--1-------1-----|--0-------0-----|--0-------0-----|
G|------0-------0-|------0-------0-|------0-------0-|------0-------0-|
D|----2-------2---|----2-------2---|----0-------0---|----0-------0---|
A|----------------|3-------3-------|----------------|----------------|
E|0-------0-------|----------------|3-------3-------|3-------3-------|

  Am                                D7
E|----------------|----------------|----------------|----------------|
B|--1-------1-----|--1-------1-----|--1-------1-----|--1-------1-----|
G|------2-------2-|------2-------2-|------2-------2-|------2-------2-|
D|----2-------2---|----2-------2---|----0-------0---|----0-------0---|
A|0-------0-------|0-------0-------|0-------0-------|0-------0-------|
E|----------------|----------------|----------------|----------------|

[Chorus]
  Em               C                G
E|----------------|----------------|----------------|----------------|
B|--0-------0-----|--1-------1-----|--0-------0-----|--0-------0-----|
G|------0-------0-|------0-------0-|------0-------0-|------0-------0-|
D|----2-------2---|----2-------2---|----0-------0---|----0-------0---|
A|----------------|3-------3-------|----------------|----------------|
E|0-------0-------|----------------|3-------3-------|3-------3-------|

[Verse]
  G                C                G
E|----------------|----------------|----------------|----------------|
B|--0-------0-----|--1-------1-----|--0-------0-----|--0-------0-----|
G|------0-------0-|------0-------0-|------0-------0-|------0-------0-|
D|----0-------0---|----2-------2---|----0-------0---|----0-------0---|
A|----------------|3-------3-------|----------------|----------------|
E|3-------3-------|----------------|3-------3-------|3-------3-------|

  C                G                Em
E|----------------|----------------|----------------|----------------|
B|--1-------1-----|--0-------0-----|--0-------0-----|--0-------0-----|
G|------0-------0-|------0-------0-|------0-------0-|------0-------0-|
D|----2-------2---|----0-------0---|----2-------2---|----2-------2---|
A|3-------3-------|----------------|----------------|----------------|
E|----------------|3-------3-------|0-------0-------|0-------0-------|

  C                G                D/F#
E|----------------|----------------|----------------|----------------|
B|--1-------1-----|--0-------0-----|--3-------3-----|--3-------3-----|
G|------0-------0-|------0-------0-|------2-------2-|------2-------2-|
D|----2-------2---|----0-------0---|----0-------0---|----0-------0---|
A|3-------3-------|----------------|----------------|----------------|
E|----------------|3-------3-------|2-------2-------|2-------2-------|

  Em               C                G
E|----------------|----------------|----------------|----------------|
B|--0-------0-----|--1-------1-----|--0-------0-----|--0-------0-----|
G|------0-------0-|------0-------0-|------0-------0-|------0-------0-|
D|----2-------2---|----2-------2---|----0-------0---|----0-------0---|
A|----------------|3-------3-------|----------------|----------------|
E|0-------0-------|----------------|3-------3-------|3-------3-------|

  Am                                D7
E|----------------|----------------|----------------|----------------|
B|--1-------1-----|--1-------1-----|--1-------1-----|--1-------1-----|
G|------2-------2-|------2-------2-|------2-------2-|------2-------2-|
D|----2-------2---|----2-------2---|----0-------0---|----0-------0---|
A|0-------0-------|0-------0-------|0-------0-------|0-------0-------|
E|----------------|----------------|----------------|----------------|

[Bridge]
  C       G        D/F#
E|----------------|----------------|----------------|
B|--1-------0-----|--3-------3-----|--3-------3-----|
G|------0-------0-|------2-------2-|------2-------2-|
D|----2-------0---|----0-------0---|----0-------0---|
A|3---------------|----------------|----------------|
E|--------3-------|2-------2-------|2-------2-------|

[Verse]
  G                C                G
E|----------------|----------------|----------------|----------------|
B|--0-------0-----|--1-------1-----|--0-------0-----|--0-------0-----|
G|------0-------0-|------0-------0-|------0-------0-|------0-------0-|
D|----0-------0---|----2-------2---|----0-------0---|----0-------0---|
A|----------------|3-------3-------|----------------|----------------|
E|3-------3-------|----------------|3-------3-------|3-------3-------|

  C                G                Em
E|----------------|----------------|----------------|----------------|
B|--1-------1-----|--0-------0-----|--0-------0-----|--0-------0-----|
G|------0-------0-|------0-------0-|------0-------0-|------0-------0-|
D|----2-------2---|----0-------0---|----2-------2---|----2-------2---|
A|3-------3-------|----------------|----------------|----------------|
E|----------------|3-------3-------|0-------0-------|0-------0-------|

  C                G                D/F#
E|----------------|----------------|----------------|----------------|
B|--1-------1-----|--0-------0-----|--3-------3-----|--3-------3-----|
G|------0-------0-|------0-------0-|------2-------2-|------2-------2-|
D|----2-------2---|----0-------0---|----0-------0---|----0-------0---|
A|3-------3-------|----------------|----------------|----------------|
E|----------------|3-------3-------|2-------2-------|2-------2-------|

  Em               C                G
E|----------------|----------------|----------------|----------------|
B|--0-------0-----|--1-------1-----|--0-------0-----|--0-------0-----|
G|------0-------0-|------0-------0-|------0-------0-|------0-------0-|
D|----2-------2---|----2-------2---|----0-------0---|----0-------0---|
A|----------------|3-------3-------|----------------|----------------|
E|0-------0-------|----------------|3-------3-------|3-------3-------|

  Am                                D7
E|----------------|----------------|----------------|----------------|
B|--1-------1-----|--1-------1-----|--1-------1-----|--1-------1-----|
G|------2-------2-|------2-------2-|------2-------2-|------2-------2-|
D|----2-------2---|----2-------2---|----0-------0---|----0-------0---|
A|0-------0-------|0-------0-------|0-------0-------|0-------0-------|
E|----------------|----------------|----------------|----------------|

[Chorus]
  Em               C                G
E|----------------|----------------|----------------|----------------|
B|--0-------0-----|--1-------1-----|--0-------0-----|--0-------0-----|
G|------0-------0-|------0-------0-|------0-------0-|------0-------0-|
D|----2-------2---|----2-------2---|----0-------0---|----0-------0---|
A|----------------|3-------3-------|----------------|----------------|
E|0-------0-------|----------------|3-------3-------|3-------3-------|

[Bridge]
  C       G        D/F#
E|----------------|----------------|----------------|
B|--1-------0-----|--3-------3-----|--3-------3-----|
G|------0-------0-|------2-------2-|------2-------2-|
D|----2-------0---|----0-------0---|----0-------0---|
A|3---------------|----------------|----------------|
E|--------3-------|2-------2-------|2-------2-------|

[Verse]
  G                C                G
E|----------------|----------------|----------------|----------------|
B|--0-------0-----|--1-------1-----|--0-------0-----|--0-------0-----|
G|------0-------0-|------0-------0-|------0-------0-|------0-------0-|
D|----0-------0---|----2-------2---|----0-------0---|----0-------0---|
A|----------------|3-------3-------|----------------|----------------|
E|3-------3-------|----------------|3-------3-------|3-------3-------|

  C                G                Em
E|----------------|----------------|----------------|----------------|
B|--1-------1-----|--0-------0-----|--0-------0-----|--0-------0-----|
G|------0-------0-|------0-------0-|------0-------0-|------0-------0-|
D|----2-------2---|----0-------0---|----2-------2---|----2-------2---|
A|3-------3-------|----------------|----------------|----------------|
E|----------------|3-------3-------|0-------0-------|0-------0-------|

  C                G                D/F#
E|----------------|----------------|----------------|----------------|
B|--1-------1-----|--0-------0-----|--3-------3-----|--3-------3-----|
G|------0-------0-|------0-------0-|------2-------2-|------2-------2-|
D|----2-------2---|----0-------0---|----0-------0---|----0-------0---|
A|3-------3-------|----------------|----------------|----------------|
E|----------------|3-------3-------|2-------2-------|2-------2-------|

  Em               C                G
E|----------------|----------------|----------------|----------------|
B|--0-------0-----|--1-------1-----|--0-------0-----|--0-------0-----|
G|------0-------0-|------0-------0-|------0-------0-|------0-------0-|
D|----2-------2---|----2-------2---|----0-------0---|----0-------0---|
A|----------------|3-------3-------|----------------|----------------|
E|0-------0-------|----------------|3-------3-------|3-------3-------|

  Am                                D7
E|----------------|----------------|----------------|----------------|
B|--1-------1-----|--1-------1-----|--1-------1-----|--1-------1-----|
G|------2-------2-|------2-------2-|------2-------2-|------2-------2-|
D|----2-------2---|----2-------2---|----0-------0---|----0-------0---|
A|0-------0-------|0-------0-------|0-------0-------|0-------0-------|
E|----------------|----------------|----------------|----------------|

[Chorus]
  Em               C                G
E|----------------|----------------|----------------|----------------|
B|--0-------0-----|--1-------1-----|--0-------0-----|--0-------0-----|
G|------0-------0-|------0-------0-|------0-------0-|------0-------0-|
D|----2-------2---|----2-------2---|----0-------0---|----0-------0---|
A|----------------|3-------3-------|----------------|----------------|
E|0-------0-------|----------------|3-------3-------|3-------3-------|

[Outro]
  C       G        D/F#                              G
E|----------------|----------------|----------------|----------|
B|--1-------0-----|--3-------3-----|--3-------3-----|----------|
G|------0-------0-|------2-------2-|------2-------2-|----------|
D|----2-------0---|----0-------0---|----0-------0---|-5~-------|
A|3---------------|----------------|----------------|-5~-------|
E|--------3-------|2-------2-------|2-------2-------|-3~-------|


************************************

| ~  Vibrato

************************************

            
            
Suggest correction
Creating personal tab
Creating personal tab
You can edit any tab online and save it as your Personal.

You can edit, replace or remove any tab part or add personal notes – all changes will be seen only by you.

Personal tabs can be accessed anytime from any device, even offline.
Learn more »
comments
print report bad tab
1 comment total.
+2 reply
tangens 168 May 27, 2011 10:50 AM

Underbart bra låt.
Och underbart bra tab!
You made my day!

guest
You may want to rate the tab now too:
select rating
Wanna post a correction for this tab? Suggest correction