Oops, an error
Loading. Please wait.

Cendrillon tab

version 1
version 1

Whole song

25,546 views 42 this week
no commentswrite comment
1 2 3 4 5
x 6
add to favorites
×
Save as Personal and add changes to this tab that will be seen only by you. Learn more ›
×
You can save this tab as Personal to edit and correct it or add notes. All changes will be seen only by you. Learn more »
launch autoscroll
font size
0
reset
how to read this tab
guitar tuner
backing track
0:00
0:00
edit
Autoscroll
slow
fast
+/-
esc
set tempo
stop
Author
Difficulty
Unregistered
intermediate
Artiste : Telephone
Chanson : Cendrillon
Tablature de : Alex
Difficulté : 4/10
(L'intro rend très bien en picking de cette manière) 
(les accords au dessus peuvent être 
par une eventuelle 2e guitare)

[Chrods]
A : 002220 ou barré : 577655
E : 022100
F#m : 244222
D : 000232
Bm* : 224422*


[Intro]
A E F#m D x4

    A               E                F#m            D
e|---------------------------------------------------------------------------|
B|-----10------10-------9-------9-------7-------7-------7-------7------------|
G|----9---9--9----9---9---9---9---9---9---9---9---9---7---7---7---7----------| x4
D|--7-------7-------7-------7-------7-------7-------7-------7----------------|
A|---------------------------------------------------------------------------|
E|---------------------------------------------------------------------------|

A                       E                        F#m            D
Cendrillon pour ses vingt ans est la plus jolie des enfants
Son bel amant le prince charmant la prend sur son cheval blanc

E              A °            
Elle oublie le temps                                                  
E                F#m 
Dans son palais d'argent

°vous pouvez completer après le A par : 

e|--------|
b|--3-2---|
g|--------|
D|--------|
A|--------|
E|-0------|

(Vous pouvez faire la montée en picking de "pour ne pas voir.." jusqu'à "elle part.." 
montré ci-dessous)
(écoutez la chanson pour la placer correctement)

     Bm
Pour ne pas voir qu'un nouveau jour se lève
     D
Elle ferme les yeux et dans ses rêves

e|------------------------------------------------------------|
B|b------------------------------------------------------------|
G|g--4--6--7--9--7--9--11-13-----------------------------------|
D|------------------------------------------------------------|
A|--2--4--5--7--5--7--9--11-----------------------------------|
E|------------------------------------------------------------|

e|A E F#m  (Etouffer les cordes)   completez le A et le E comme ceci : 
B|Elle part..                                                          
G|D A E F#m D                                                          
D|Jolie petite histoire                                                
A|Bis                                                                  
E|                                                                     

e|---0----0---0----0-------|
b|---2-2h3----0-2h3--------|
g|---2--------1------------|
D|---2--------2------------|
A|---0--------2------------|
E|---0--------0------------|

Cendrillon pour ses trente ans est la plus triste des mamans
Le prince charmant a foutu le camp avec la belle au bois dormant
Elle a vu cent chevaux blansc loin d'elle emmener ses enfants

Elle commence a boire
A trainer dans les bars

Emmitouflée dans son cafard
Maintenant elle fait le trottoir

Elle part...
Jolie petite histoire
Bis

Dix ans de cette vie ont suffit à la changer en junkie
Et dans un sommeil infini Cendrillon voit finir sa vie

Les lumières dansent
Dans l'ambulance

Mais elle tue sa dernière chance
Tout cela n'a plus d'importance

Elle part...
Fin de l'histoire

[Solo] 
(Si vous êtes flemmards comme moi rejouez simplement l'intro)

A                      E
Notre Père qui êtes si vieux
F#m                       D
As-tu vraiment fait de ton mieux
       A                   D
Car sur la terre et dans les cieux
F#m                            D                         A  (tenir, et faire en barré)
Tes anges n'aiment pas..devenir vieux

[Fin]

            
            
Suggest correction
Creating personal tab
Creating personal tab
You can edit any tab online and save it as your Personal.

You can edit, replace or remove any tab part or add personal notes – all changes will be seen only by you.

Personal tabs can be accessed anytime from any device, even offline.
Learn more »
comments
print report bad tab
guest
Wanna post a correction for this tab? Suggest correction