Oops, an error
Loading. Please wait.

Monsterparty bass

5,472 views 6 this week
1 commentread comment
1 2 3 4 5
x 5
add to favorites
×
Save as Personal and add changes to this tab that will be seen only by you. Learn more ›
×
You can save this tab as Personal to edit and correct it or add notes. All changes will be seen only by you. Learn more »
launch autoscroll
font size
0
reset
guitar tuner
edit
Autoscroll
slow
fast
+/-
esc
set tempo
stop
Author
Difficulty
                   Die Aerzte - Monsterparty


Intro
g:------------------------------------------------|
d:--2-0-------------------------------------------|
a:------3-2-0-------------3---3---3-...-----------|
e:-------------0-2-4----5---5---5--...---0-2-4----|

Strophe
g:-------------------------------------------------|
d:-------------------------------------------------|
a:----3-5-3----3-5-3-------------------------------|
e:--5--------5-------1-3-1-3-1--3-5-3-5-3-5--0-2/4-|

Refrain
g:------------------------------------------------|
d:------------------------------------------------|
a:---3/7----------------3-------------------------|
e:-------8\3---5-1-3-1----3-----------------------|


Solo:
g:-------------------------------------------------|
d:-------------------------------------------12-15-|
a:----3-5-3---3-5-3----0/12-0/12-0/12--12-15-------|
e:--5-------5--------------------------------------|

g:------------------------------------------------|
d:--20-15-16p15-15-15-16p15-15-15-13-11-10-11/13--|
a:------------------------------------------------|
e:------------------------------------------------|

g:------------------------------------------------|
d:--13-11-10-8-6-5-3-5-6-6-3-6/12-12-12-12--------|
a:------------------------------------------------|
e:------------------------------------------------|
man sollte erwähnen, dass in diesem Abschnitt des solos
nach jedem gespielten ton der finger der linken Hand
kurz abgehoben wird, damit ganz kurz das D der Leersaite
erklingt.

warf fühlte noch(?) in des grafen Sarg
g:------------------------------------------------|
d:------------------------------------------------|
a:-0-------------5/17-----------------------------|
e:------1-1/13-----------5--6---7--8---9----------|

Peace älf b.

            
            
Suggest correction
Creating personal tab
Creating personal tab
You can edit any tab online and save it as your Personal.

You can edit, replace or remove any tab part or add personal notes – all changes will be seen only by you.

Personal tabs can be accessed anytime from any device, even offline.
Learn more »
comments
print report bad tab
1 comment total.
0 reply
Jasper7979 51 Aug 17, 2007 10:24 PM

Klasse, danke dafür.

guest
You may want to rate the tab now too:
select rating
Wanna post a correction for this tab? Suggest correction