Oops, an error
Loading. Please wait.

Starry Eyes tab

version 2
version 2

Interactive

2,225 views 1 this week
no commentswrite comment
1 2 3 4 5
x 3
add to favorites
×
Save as Personal and add changes to this tab that will be seen only by you. Learn more ›
×
You can save this tab as Personal to edit and correct it or add notes. All changes will be seen only by you. Learn more »
launch autoscroll
font size
0
reset
how to read this tab
guitar tuner
edit
Autoscroll
slow
fast
+/-
esc
set tempo
stop
Author
starry eyes
motley crue

x- palm mute
pm- palm mute
x \- pick scrape down fret board
h- hammer on
p- pull off
b- bend

I found this on someone's website and I figured someone would want it.

D tuning

intro- x2
d-------------------------------------------------|
a-------------------------------------------------|
f-------------------------------------------------|
c--14-x-x-14-14-12-14-12-10-x-x-10-10-12-10-12-14-|
g--14-x-x-14-14-12-14-12-10-x-x-10-10-12-10-12-14-|
d--12-x-x-12-12-10-12-10-8--x-x-8--8--10-8--10-12-|

verse- x2
d---------------------------------------------------------|
a---------------------------------------------------------|
f---------------------------------------------------------|
c--14--14-14-14--12--12-12-12--10--10-10-10--12--12-12-12-|
g--14--14-14-14--12--12-12-12--10--10-10-10--12--12-12-12-|
d--12--12-12-12--10--10-10-10--8---8--8--8---10--10-10-10-|


chorus
         pm------------------------------------------------|           x2
d---------------------------|------------------------------|
a---------------------------|------------------------------|
f---------------------------|------------------------------|
c--------14-14-14-14-14-14--|-14--10-12--10-12--10---------|
g--x--\--14-14-14-14-14-14--|-12--10-12--10-12--10--0-3-2--|
d--------12-12-12-12-12-12--|-12--8--10--8--10--8----------|

intro again- x2
d-------------------------------------------------|
a-------------------------------------------------|
f-------------------------------------------------|
c--14-x-x-14-14-12-14-12-10-x-x-10-10-12-10-12-14-|
g--14-x-x-14-14-12-14-12-10-x-x-10-10-12-10-12-14-|
d--12-x-x-12-12-10-12-10-8--x-x-8--8--10-8--10-12-|

verse- x2
d---------------------------------------------------------|
a---------------------------------------------------------|
f---------------------------------------------------------|
c--14--14-14-14--12--12-12-12--10--10-10-10--12--12-12-12-|
g--14--14-14-14--12--12-12-12--10--10-10-10--12--12-12-12-|
d--12--12-12-12--10--10-10-10--8---8--8--8---10--10-10-10-|


chorus
         pm------------------------------------------------|           x2
d---------------------------|------------------------------|
a---------------------------|------------------------------|
f---------------------------|------------------------------|
c--------14-14-14-14-14-14--|-14--10-12--10-12--10---------|
g--x--\--14-14-14-14-14-14--|-12--10-12--10-12--10--0-3-2--|
d--------12-12-12-12-12-12--|-12--8--10--8--10--8----------|

riff before solo

     x8                x2               x2
d-----------------|-----------------|-----------------|
a-----------------|-----------------|-----------------|
f-----------------|-----------------|-----------------|
c-----------------|-----------------|-----------------|
g-0-3-2-3-5-3-2-3-|-----------------|-0-3-2-3-5-3-2-3-|
d-----------------|-0-3-2-3-5-3-2-3-|-----------------|

       x2                x2
d------------------|-----------------|
a------------------|-----------------|
f------------------|-----------------|
c------------------|-----------------|
g------------------|-0-3-2-3-5-3-2-3-|
d--0-3-2-3-5-3-2-3-|-----------------|

beginning of solo starts with one of these
power chords palm muted 5 times. i cant decide
which one at the moment, so you try for yourself

d-----|-----|-----|
a-----|-----|-----|
f-----|--5--|-----|
c--14-|--5--|--2--|
g--14-|--3--|--2--|
d--12-|-----|--0--|

then it goes off the rest of the solo

d---------------------------------------|
a---------------------------------------|
f--10b-10b-10b-10b-10b-10b-10-9h10p9h10-|
c---------------------------------------|
g---------------------------------------|
d---------------------------------------|

after you get the rest of the solo
from mick mars or shaun at motley.com,
it goes back to the chorus 2 times and then
an outro solo.
Suggest correction
Creating personal tab
Creating personal tab
You can edit any tab online and save it as your Personal.

You can edit, replace or remove any tab part or add personal notes – all changes will be seen only by you.

Personal tabs can be accessed anytime from any device, even offline.
Learn more »
Give kudos to tab author, rate the tab!
1 2 3 4 5
comments
print report bad tab
guest
You may want to rate the tab now too:
select rating
Wanna post a correction for this tab? Suggest correction