Oops, an error
Loading. Please wait.

Adioz tab

version 1
version 1

Whole song

Interactive

35,815 views 24 this week
1 commentread comment
1 2 3 4 5
x 3
add to favorites
×
Save as Personal and add changes to this tab that will be seen only by you. Learn more ›
×
You can save this tab as Personal to edit and correct it or add notes. All changes will be seen only by you. Learn more »
launch autoscroll
font size
0
reset
how to read this tab
guitar tuner
edit
Autoscroll
slow
fast
+/-
esc
set tempo
stop
Zupfgitarre
e|-0-----0------0-----0-----|-0-----0------0-----0-----|
b|-----3-----3------3-----3-|-----3-----3------3-----3-|
g|---2-----2------2-----2---|---2-----2------2-----2---|
D|-0------------0-----------|--------------------------|
A|--------------------------|-3------------3-----------|
E|--------------------------|--------------------------|

e|------------------------------|----------------------------|
b|-1-----1--------1-----1-------|-0-----0-----0--1-----1-----|
g|-----3-----3--------3-----3---|-----1---1----------1---1---|
D|---3-----3--------3-----3-----|---1-------1------1-------1-|
A|-1-----------1--1-----------1-|-0--------------0-----------|
E|------------------------------|----------------------------|

Akkordfolge1: dm - C - Bb add9

Akkordfolge2: dm - A

Akkorfgolge3: Bb - C - Bb - A

Akkordfolge4: dm - A - F  - E

1. Sologitarre + Zupfgitarre

(riff 1)
e|-------------------------------|
b|-------------------------------|
g|-9-10-7--9-10-7--9-10-7-7/10-9-|
D|-------------------------------|
A|-------------------------------|
E|-------------------------------|

(riff 2)
e|------------------------------------------------------|
b|-------------------------------------8-10-8----8------|
g|-9-10-7--9-10-7--9-10-7-7/10-9--9-10--------10---10-9-|
D|------------------------------------------------------|
A|------------------------------------------------------|
E|------------------------------------------------------|

Akkordfolge1 setzt ein
e|---------------------------------------------------|
b|---------------------------------------------------|
g|-9-10-7--9-10-7--9-10-7-7/10-9--10-10/12-10-9/10/9-|
D|---------------------------------------------------|
A|---------------------------------------------------|
E|---------------------------------------------------|

e|-------------------------------------------------------------------|
b|--------------8-10-8------------------8-10-8---------10-11-10------|
g|-9-10-7--9-10--------10-9-10--9-10-7---------10-9-10----------10-9-|
D|-------------------------------------------------------------------|
A|-------------------------------------------------------------------|
E|-------------------------------------------------------------------|

e|-----------------------------------|
b|-11-10------------8-10-8----8------|
g|-------10-9--9-10--------10---10-9-|
D|-----------------------------------|
A|-----------------------------------|
E|-----------------------------------|

(riff 3)
Akkordfolge2 spielt
e|-10---------8---------10---------6---------|
b|----10-8----6------------10-8----8---------|
g|---------10---10-9-7----------10---10-9-10-|
D|-------------------------------------------|
A|-------------------------------------------|
E|-------------------------------------------|

e|-10-----------------------------------------|
b|----10-8------------------------------------|
g|---------10-9-10-9-7--7/9-9-9-9-9-10-10-9-7-|
D|--------------------------------------------|
A|--------------------------------------------|
E|--------------------------------------------|

Akkordfolge3 spielt
e|-------------------------------------------------------------------|
b|-------------------------------------------------------------------|
g|-10-9-10--10-9-10-10/12-10-9-7--10-9-10--10-9-10-10/12-10-12-12/14-|
D|-------------------------------------------------------------------|
A|-------------------------------------------------------------------|
E|-------------------------------------------------------------------|

(riff 4)
Zupfgitarre spielt
e|-----------------------------------------------|
b|-----------------------------------8-----------|
g|-9-10-7--9-10-7--9-10-7-7/10-9--10---10-9------|
D|-----------------------------------------------|
A|-----------------------------------------------|
E|-----------------------------------------------|

Ab hier spielen 2 Sologitarren:

1.Sologitarre spielt immer riff1

2.Sologitarre

(riff 5)
e|----------------------------------------------|
b|------8-------8-------------------------------|
g|-9-10---10-9----10-9-10-----------------------|
D|-------------------------10-------------------|
A|----------------------------12-12-12-10-10-12-|
E|----------------------------------------------|

Akkordfolge1 setzt ein
e|------------------------------------------------------------------|
b|------8-10-8----8----------------8-10-11-13-11-10--10-11-11/13/15-|
g|---10--------10---10-9-7-7--9-10----------------------------------|
D|------------------------------------------------------------------|
A|------------------------------------------------------------------|
E|------------------------------------------------------------------|

e|-------------------------------------|
b|-15-15-13-11-13-11-10-11-10--11-10-8-|
g|-------------------------------------|
D|-------------------------------------|
A|-------------------------------------|
E|-------------------------------------|

e|----------------------------------------------------------------|
b|-10-10-11-10-8-------11-10-8-------11-10-8-----------------8----|
g|---------------10-9----------10-9----------10-9-7-9-7-9-10---10-|
D|----------------------------------------------------------------|
A|----------------------------------------------------------------|
E|----------------------------------------------------------------|

e|------------------------------------------|
b|-/15-15-15-15-13-11-13-11-10-11-10--11-10-|
g|------------------------------------------|
D|------------------------------------------|
A|------------------------------------------|
E|------------------------------------------|

es wird riff3 gespielt

(riff 6)

Es spielen wieder 2 Sologitarren!
Sologitarre 1
Akkordfolge2 spielt
e|-10-------------------10-------------------|
b|----10-8-----------------10-8--------------|
g|---------10-9-10-9-7----------10-9-10-9-10-|
D|-------------------------------------------|
A|-------------------------------------------|
E|-------------------------------------------|

e|-10-------------------10---------10---------|
b|----10-8-----------------10-8-------10-8----|
g|---------10-9-10-9-7----------10---------10-|
D|--------------------------------------------|
A|--------------------------------------------|
E|--------------------------------------------|

Akkordfolge1 spielt
e|-10-------------------10-------------------|
b|----10-8-----------------10-8--------------|
g|---------10-9-10-9-7----------10-9-10-9-10-|
D|-------------------------------------------|
A|-------------------------------------------|
E|-------------------------------------------|

e|-10---------10---------10----------------|
b|----10-8-------10-8-------10-8----8-8/10-|
g|---------10---------10---------10--------|
D|-----------------------------------------|
A|-----------------------------------------|
E|-----------------------------------------|

Sologitarre 2
e|------------------------------------------------------------------|
b|------------------------------------------------------------------|
g|------------------------------------------------------------------|
D|----------10-12---------------------------------------------------|
A|-12-10-12-----------------10/12-10----10-----------10/12-10----10-|
E|-----------------10-12-13----------13-----10-12-13----------13----|

e|----------------------------------------------------|
b|----------------------------------------------------|
g|----------------------------------------------------|
D|----------------------------------------------------|
A|----------10/12-10----10--/13-15-13-12-13-12--13-12-|
E|-10-12-13----------13-------------------------------|

(riff 7)
Sologitarre1:
Akkordfolge1 wird gespielt
e|------------------------------------------------------------------------|
b|------------------------------------------------------------10-11-10----|
g|----9----10-12-10-9-10-----9----10-12-10-9-10-----9----10-12---------10-|
D|-12---12----------------12---12----------------12---12------------------|
A|------------------------------------------------------------------------|
E|------------------------------------------------------------------------|

e|------------------------10-------------------10-------------------|
b|---------------------------10-8-----------------10-8--------------|
g|----9----10-12-10-9-10----------10-9-10-9-10---------10-9-10-9-10-|
D|-12---12----------------------------------------------------------|
A|------------------------------------------------------------------|
E|------------------------------------------------------------------|

Akkordfolge4 wird gespielt
e|-10------------------------------------------|
b|----10-8-------------------------------------|
g|---------10-9-10-9-7--7/9-9-9-9-9-10-10-10-9-|
D|---------------------------------------------|
A|---------------------------------------------|
E|---------------------------------------------|

Akkordfolge3 wird gespielt
e|-------------------------------------------------------------------|
b|-------------------------------------------------------------------|
g|-10-9-10--10-9-10-10/12-10-9-7--10-9-10--10-9-10-10/12-10-12-12/14-|
D|-------------------------------------------------------------------|
A|-------------------------------------------------------------------|
E|-------------------------------------------------------------------|

e|-------------------------------------------------------------------|
b|-------------------------------------------------------------------|
g|-10-9-10--10-9-10-10/12-10-9-7--10-9-10--10-9-10-10/12-10-12-12/14-|
D|-------------------------------------------------------------------|
A|-------------------------------------------------------------------|
E|-------------------------------------------------------------------|

(riff 8)
(Zupfgitarre spielt, der letzte Takt wird ein wenig anders gespielt)(siehe 
unten)
e|----------------------------------------------------|
b|-/15-13---------------------------------------------|
g|--------12-10-9-----9-10-10-9-----------------------|
D|-----------------12-----------12-10-----------------|
A|-------------------------------------12-10-12-13-12-|
E|----------------------------------------------------|

e|--------------------------------------------------------8--------------------|
b|---------10-------------------------------8-8/10--10-11---11-10--10-11-10-10-|
g|-9-10-12----12-10-9----9--9-10-12-10-9-10------------------------------------|
D|--------------------12-------------------------------------------------------|
A|-----------------------------------------------------------------------------|
E|-----------------------------------------------------------------------------|

e|-0-----0------0-----0-----|-0-----0------0-----0-----|
b|-----3-----3------3-----3-|-----3-----3------3-----3-|
g|---2-----2------2-----2---|---2-----2------2-----2---|
D|-0------------0-----------|--------------------------|
A|--------------------------|-3------------3-----------|
E|--------------------------|--------------------------|

e|------------------------------|-------------0-|
b|-1-----1--------1-----1-------|-0-----0-----0-|
g|-----3-----3--------3-----3---|-----1---1---2-|
D|---3-----3--------3-----3-----|---1-------1-2-|
A|-1-----------1--1-----------1-|-------------0-|
E|------------------------------|-------------0-|


************************************

| /  Slide up

************************************

            
            
Suggest correction
Creating personal tab
Creating personal tab
You can edit any tab online and save it as your Personal.

You can edit, replace or remove any tab part or add personal notes – all changes will be seen only by you.

Personal tabs can be accessed anytime from any device, even offline.
Learn more »
Give kudos to tab author, rate the tab!
1 2 3 4 5
comments
print report bad tab
1 comment total.
0 reply
NoSmokingArea 40 Sep 21, 2009 11:29 AM

ahh sehr nice :D 5*

guest
You may want to rate the tab now too:
select rating
Wanna post a correction for this tab? Suggest correction