Oops, an error
Loading. Please wait.

Limb From Limb tab

version 1
version 1

Whole song

Interactive

6,944 views 9 this week
1 commentread comment
1 2 3 4 5
1 last vote to show rating
add to favorites
×
Save as Personal and add changes to this tab that will be seen only by you. Learn more ›
×
You can save this tab as Personal to edit and correct it or add notes. All changes will be seen only by you. Learn more »
launch autoscroll
font size
0
reset
how to read this tab
guitar tuner
edit
Autoscroll
slow
fast
+/-
esc
set tempo
stop
Motorhead-"Limb from limb"
tabbed by guillermoluppi: Lordaborto@mixmail.com
Tune down to Eb (half a step).

This is a cool song from the great overkill album.
Main Riff
e|----------------------|
B|----------------------|
G|----------------------|
D|----------------------|
A|-----7------5---------|
E|-0-0----5-7---5-7-5-3-|

Verse A  (1st & 2nd times)
e|-----------------------------------|
B|-----------------------------------|
G|-----------------------------------|
D|-----------------------------------|
A|-7-777777777-7-775/7-7-7-7775--5-5-|
E|-5-555555555-5-553/5-5-5-5553--3-3-|

Verse B  (3rd time)
e|-----------------------------------|
B|-----------------------------------|
G|-----------------------------------|
D|-----------------------------------|
A|-9-999999999-9-995/7-7-7-7775--5-5-|
E|-7-777777777-7-773/5-5-5-5553--3-3-|

After solo
e|---------|
B|---------|
G|---------|
D|-77-7/9--|
A|-55-5/7--|
E|---------|

Now go to double time (or time and a half or something. It's faster anyway).

'Bridge'
e|----------------------------------|
B|----------------------------------|
G|----------------------------------|
D|-------------5--------------------|
A|-577777777777--7-577777777757---5-|
E|------------------------------57--|

The verse riffs are the same but faster. Replace the main riff with the one below.

e|-----------------|
B|-----------------|
G|-----------------|
D|-----------------|
A|-2-222222--2--2--|
E|-0-0000003-03-03-|

            
            
Suggest correction
Creating personal tab
Creating personal tab
You can edit any tab online and save it as your Personal.

You can edit, replace or remove any tab part or add personal notes – all changes will be seen only by you.

Personal tabs can be accessed anytime from any device, even offline.
Learn more »
Give kudos to tab author, rate the tab!
1 2 3 4 5
comments
print report bad tab
1 comment total.
0 reply
Herr_Flick 10 Jun 19, 2015 05:53 AM

Main riff is as follows I think:

e|---------------------------------------|
B|---------------------------------------|
G|---------------------------------------|
D|---------------------------------------|
A|-----7v-----5-5-----------7v-----5-5---|
E|-0-0----5h7----p7-h3--0-0----5-h7---7--|

guest
Wanna post a correction for this tab? Suggest correction