Oops, an error
Loading. Please wait.

Love Me Forever tab

version 1
version 1

Whole song

Interactive

26,588 views 42 this week
2 commentsread comments
1 2 3 4 5
2 more votes to show rating
add to favorites
×
Save as Personal and add changes to this tab that will be seen only by you. Learn more ›
×
You can save this tab as Personal to edit and correct it or add notes. All changes will be seen only by you. Learn more »
launch autoscroll
font size
0
reset
how to read this tab
guitar tuner
edit
Autoscroll
slow
fast
+/-
esc
set tempo
stop
Motorhead-Love me forever
tabbed by guillermo Luppi (Lordaborto@mixmail.com)

Tuning: 6=Db, 5=Ab, 4=Db, 3=Gb, 2=Bb, 1=Eb

[Intro and Verse]
 (I think That somethin fails in here)
                    (repeatx3)             Last Time
D#|-------------------------|---------------------|
A#|-------------------------|---------------------|
F#|-------------------------|---------------------|
C#|-----2-3-2-------2-3-2---|-----2-3-2--------2--|
G#|---0-------0---0-------0-|---0-------0----0----|
D#|-0-----------2-----------|-0------------2------|

[Pre-Chorus]
D#|-------------------|-------------------|
A#|-------------------|-------------------|
F#|-2---2---2---2-2-2-|-2---2---2---2-5-6-|
C#|-2---2---2---2-2-2-|-2---2---2---2-5-6-|
G#|-0---0---0---0-0-0-|-0---0---0---0-3-4-|
D#|-------------------|-------------------|

[Chorus]
D#|---------------------------------------|
A#|---------------------------------------|
F#|----7--5--3-5--7---5--3--5--7--5--3----|
C#|----7--5--3-5--7---5--3--5--7--5--3----|
G#|----5--3--1-3--5---3--1--3--5--3--1----|
D#|---------------------------------------|
these parts are when lemmy sings   Everything changes, it all stays the same
                                   Every way out brings you back to the start

D#|-----------------------------------|
A#|-----------------------------------|
F#|-5-----7--5------------------------|
C#|-5--5--7--5------------------------|
G#|-3--5--5--3------------------------|
D#|----3------------------------------|
these parts are when lemmy sings     Everyone guilty,  no one to blame
                                    Everyone dies to break somebody's heart

[End of chorus]
 (once first time, twice all other times)
D#|----------------|
A#|----------------|
F#|----5------5----|
C#|----5------5----|
G#|----3------3----|
D#|----------------|

[Second solo]
 (which is QUITE right)
D#|----------------------------------------------|
A#|----------------------------------------------|
F#|-12^14^12^14^12^14-12^14^12^14^12^14----------|
C#|----------------------------------------------|
G#|----------------------------------------------|
D#|----------------------------------------------|

D#|----------------------------------------------|
A#|----------------------------------------------|
F#|12^14^12^14-12^14^12-10-12--12-10----10-------|
C#|------------------------------------12-----12-|
G#|----------------------------------------------|
D#|----------------------------------------------|

D#|-------------------------13-------------------|
A#|------15-13-15--15-13-------15-13-15-13-------|
F#|--/14-----------------14----------------14-12-|
C#|----------------------------------------------|
G#|----------------------------------------------|
D#|----------------------------------------------|

D#|-----------------------------------------------|
A#|--------------------18^20-18~-(18)-18^20-18-18-|
F#|(9)-10-12-10-9-9~-\----------------------------|
C#|-----------------------------------------------|
G#|-----------------------------------------------|
D#|-----------------------------------------------|

D#|-----------------------------------------------|
A#|18^20-18~-18-15-18-17-15-----------------------|
F#|------------------------17-17b19~\/12-14-12-10-|
C#|-----------------------------------------------|
G#|-----------------------------------------------|
D#|-----------------------------------------------|

D#|-----------------------------------------------|
A#|-----------------------------------------------|
F#|----10-----10-----10-----10-----10-----10-/12\-|
C#|/12----/12----/12----/12----/12----/12---------|
G#|-----------------------------------------------|
D#|-----------------------------------------------|

D#|-------------------------/(10)-10-10-10-10\(8)-|
A#|-------------------------/(10)-10-10-10-10\(8)-|
F#|10/12\10/12-12b14-12~-\------------------------|
C#|-----------------------------------------------|
G#|-----------------------------------------------|
D#|-----------------------------------------------|

D#|8-8-8/(10)-10\(8)-8-8-8/(10)/(13)-13\(10)-10--|
A#|8-8-8/(10)-10\(8)-8-8-8/(10)/(13)-13\(10)-10--|
F#|----------------------------------------------|
C#|----------------------------------------------|
G#|----------------------------------------------|
D#|----------------------------------------------|


D#|----------------------------------------------|
A#|-18^20-18--18-15--------------------15-13-----|
F#|-----------------17-(17)^19^17^19---------15--|
C#|----------------------------------------------|
G#|----------------------------------------------|
D#|----------------------------------------------|

D#|--------------------------------12-------12----|
A#|-----------------------------------13------13--|
F#|14^15^14-12-14-12-12-14-15/17--------14--------|
C#|-----------------------------------------------|
G#|-----------------------------------------------|
D#|-----------------------------------------------|

D#|----12-------------12-------12-------15^17-15-|
A#|-------13-------------13-------13-------------|
F#|-14-------14-12~---------14-------14----------|
C#|----------------------------------------------|
G#|----------------------------------------------|
D#|----------------------------------------------|

D#|--17^15-13-15----15---13---12------------------|
A#|-------------------------------13^15--15-13----|
F#|--------------------------------------------14-|
C#|-----------------------------------------------|
G#|-----------------------------------------------|
D#|-----------------------------------------------|


D#|-----------------------------------------------|
A#|-----------------------------------------------|
F#|12^14^-12--10-12^14^12-10-12-------------------|
C#|-----------------------------------------------|
G#|-----------------------------------------------|
D#|-----------------------------------------------|

[Solo backing]
(is same as chorus)



************************************

| (n)  Ghost note
| b    Bend
| /    Slide up
| \    Slide down
| ~    Vibrato 

************************************

            
            
Suggest correction
Creating personal tab
Creating personal tab
You can edit any tab online and save it as your Personal.

You can edit, replace or remove any tab part or add personal notes – all changes will be seen only by you.

Personal tabs can be accessed anytime from any device, even offline.
Learn more »
Give kudos to tab author, rate the tab!
1 2 3 4 5
comments
print report bad tab
2 comments total.
0 reply
karol20003 240 Oct 17, 2013 05:48 AM

I think there should be played 1 instead of 0 on A string one in two times in verse

0 reply
themastersofa 19 Feb 21, 2015 05:22 PM

Mind if I do this in Tab Pro?

guest
Wanna post a correction for this tab? Suggest correction