Oops, an error
Loading. Please wait.

The Chase Is Better Than The Catch Tab

version 1
version 1

Whole song

Interactive

20,591 views 30 this week
1 commentread comment
1 2 3 4 5
x 5
add to favorites
launch autoscroll
font size
0
reset
how to read this tab
guitar tuner
×
Best way to learn
"The Chase Is Better Than The Catch"
Autoscroll
slow
fast
+/-
esc
set tempo
stop
Motörhead-"The chase is better than the catch"
tabbed by guillermoluppi: Lordaborto@mixmail.com

[Intro]
e|--------------------|------------------------|
B|--------------------|------------------------|
G|---------------5-7--|---------------7--------|
D|---------------5-7--|---------------5-7-5-7--|
A|-5-7-7-7-7-7-7------|-5-7-7-7-7-7-7---5-3-5--|
E|-0---0-0-0-0-0------|-0---0-0-0-0-0----------|
   
 [Riff 1]
e|----------------------------|------------------------------|
B|----------------------------|------------------------------|
G|---------------5-7----------|---------------7--------------|
D|---------------5-7----------|---------------5---7---5---7--|
A|-5-7-7-7-7-7-7--------------|-5-7-7-7-7-7-7-----5---3---5--|
E|-0---0-0-0-0-0--------------|-0---0-0-0-0-0----------------|

 [Verse]                                                  (x2)              
e|------------------------------------------------------|
B|------------------------------------------------------|
G|--------12-14\-------12-14\-------12-14---------------|
D|--------12-14\-------12-14\-------12-14---------------|
A|----------------------------------------10-12---------|
E|-0-0-0-0------0-0-0-0------0-0-0-0-------8-10---------|

Play riff 1 between every verse and chorus.

[Chorus]
e|---------------------------|---------------------------|
B|---------------------------|---------------------------|
G|---------------------------|---------------------------|
D|-2-2-4-4-2-2-4-2-2-4-2-2-4-|-2-2-4-4-2-2-4-2-2-4-2-2-4-|
A|-0-0-0-0-0-0-0-0-0-0-0-0-0-|-0-0-0-0-0-0-0-0-0-0-0-0-0-|
E|---------------------------|---------------------------|                     

e|-------------------------------|-------------------------------|
B|-------------------------------|-------------------------------|
G|-------------------------------|-------------------------------|
D|-10-----10---------12-12-12-12-|-10-----10---------12-12-12-12-|
A|--8------8---------10-10-10-10-|--8------8---------10-10-10-10-|
E|-------------------------------|-------------------------------|

[Play riff 1] between every chorus and ensuing verse.
[1st Solo backing]
[Riff 1] (x1)
[Verse riff] (x2)
[Riff 1] (x1)

 [Beginning of 2nd guitar solo]
e|----------------------|--------------------------|-------------------|
B|-15-15----15-15-12----|--------------------------|-------------------|
G|-------------------14-|-12----12-----------------|-------------------|
D|----------------------|----14------14^(16)-(14)~-|-12----------------|
A|----------------------|--------------------------|----14-12\10-------|
E|----------------------|--------------------------|-------------12----|

                                                     | 6 times |
e|---------------------------------------------------|---------|---------------|
B|------------------------------------------------15-|-15------|---------------|
G|------------------------------------5---5-7--14----|-14^(16)-|-14-12---------|
D|---------5-----------------5-7-7777---7------------|---------|-------14-/-\--|
A|--7-7777---7---------3-5/7-------------------------|---------|---------------|
E|---------------5^(6)-------------------------------|---------|---------------|

Backing for 2nd solo is riff 1 until the [Outro]
[Outro] is just E5(0799000)

************************************

| \  Slide down
| /  Slide up

************************************
Suggest correction
comments
print report bad tab
1 comment total.
0 reply
Ozz77 95 Jun 27, 2015 11:58 AM

didn't like this contribution

guest
You may want to rate the tab now too:
select rating
Wanna post a correction for this tab? Suggest correction