Oops, an error
Loading. Please wait.

Nuestra Aflicción tab

version 1
version 1
by Panda
38,411 views 6 this week
no commentswrite comment
1 2 3 4 5
x 4
add to favorites
×
Save as Personal and add changes to this tab that will be seen only by you. Learn more ›
×
You can save this tab as Personal to edit and correct it or add notes. All changes will be seen only by you. Learn more »
launch autoscroll
font size
0
reset
how to read this tab
guitar tuner
edit
Autoscroll
slow
fast
+/-
esc
set tempo
stop
   cuanto,cuanto se necesita, para ya resolver, destruir este dilema
d#|--0~-----------------4~----------------4~--------------------5~--|
A#|--0~-----------------4~----------------5~--------------------5~--|
F#|--1~-----------------4~----------------6~--------------------6~--|
C#|--2~-----------------6~----------------6~--------------------7~--|
G#|--2~-----------------6~----------------4~--------------------7~--|
D#|--0~-----------------4~--------------------------------------5~--|

   que me tortura en las noches, no me deja soñar, amplifica mis temores
d#-----------------------2~------------------2~--------------------2~---|
A#-----------------------2~------------------4~--------------------2~---|
F#-----------------------2~------------------4~--------------------2~---|
C#-----------------------4~------------------4~--------------------4~---|
G#-----------------------4~------------------2~--------------------4~---|
D#------------4----------2~----------------------------------------2~---|

    simplocabal... aaal
d#----------5~-------7~-|
A#----------5~-------7~-|
F#----------6~-------8~-|
C#----------7~-------9~-|
G#----------7~-------9~-|
D#----------5~-------7~-|


  me encerre y acabe con mis sueños y la llave arroge para que los necesito
d#|0~------------------------4~------------------4~--------------------5~|
A#|0~------------------------4~------------------5~--------------------5~|
F#|1~------------------------4~------------------6~--------------------6~|
C#|2~------------------------6~------------------6~--------------------7~|
G#|2~------------------------6~------------------4~--------------------7~|
D#|0~------------------------4~----------------------------------------5~|

   solo me causara angustia, me hace falta un plan, me hace falta astusia
d#--------------------2~---------------------2~---------------------2~---|
A#--------------------2~---------------------4~---------------------2~---|
F#--------------------2~---------------------4~---------------------2~---|
C#--------------------4~---------------------4~---------------------4~---|
G#--------------------4~---------------------2~---------------------4~---|
D#---------4----------2~--------------------------------------------2~---|

   y paz mental... aaal
d#----------5~-------7~-|
A#----------5~-------7~-|
F#----------6~-------8~-|
C#----------7~-------9~-|
G#----------7~-------9~-|
D#----------5~-------7~-|

   entiendo el rechazo del mundo, tu repudio amor pues iwal si me conociera
d#|--0000000000000000000000444444444444444444444444444444444444444444455555
A#|--0000000000000000000000444444444444444444555555555555555555555555555555
F#|--1111111111111111111111444444444444444444666666666666666666666666666666
C#|--2222222222222222222222666666666666666666666666666666666666666666677777
G#|--2222222222222222222222666666666666666666444444444444444444444444477777
D#|--0000000000000000000000444444444444444444-------------------------55555

  tal vez voltearia mi cara talvez sentiria lastima dicen q el amor mancha
d#555555555554444444444222222222222222222222222222222222222222222222222222
A#555555555554444444444222222222222222222222444444444444444444444444222222
F#666666666664444444444222222222222222222222444444444444444444444444222222
C#777777777776666666666444444444444444444444444444444444444444444444444444
G#777777777776666666666444444444444444444444222222222222222222222222444444
D#555555555554444444444222222222222222222222------------------------222222

  y ya me ensucie... eeeh
d#2222222222225555555557-7-7-7|
A#2222222222225555555557-7-7-7|
F#2222222222226666666668-8-8-8|
C#4444444444447777777779-9-9-9|
G#4444444444447777777779-9-9-9|
D#2222222222225555555557-7-7-7|

CORO
    parece si parece oh no no, que lo mucho que ofresco, no ofreci tanto
d#----------------------------------------------------------------------|
A#----------------------------------------------------------------------|
F#----------------------------------------------------------------------|
C#----2---------6------------6------------------------------------------|
G#----2---------6------------4-------------------7--------------4-------|
D#----0---------4--------------------------------5-------5--5------7--5-|
                            P.M.                P.M.    SOLO PRIMER CORO
y por eso, po or eso me afronte y dejare de ser una carga
----------------------------------------------------------|
----------------------------------------------------------|
----------------------------------------------------------|
------2----------6------------6---------------------------|
------2----------6------------4---------------------7-----|
--4---0----------4----------------------------------5-----|
                             P.M.                  P.M.

pues yo ya no awanto mas farzas, no lo puedo evitar
               G#5       F#5                   B5
sentir que muere mi flama cuando no estas... aaas
                    F#5               A5       B5
y asi cierro un ciclo amor, necesito un favor
   E5                  G#5              C#5 pm
un poco mas de medicina, pues nunca entendi la manera
                   A5 PM                G#5    F#5
para poder evitar sentir que me rompes las piernas
            B5                             F#5
cuando no estas... aaas
             A5      B5

 y me haria feliz que mi cantar te haga
-5------------7-------------4------2----|
-5------------7-------------5------4----|
-6------------8-------------6------4----|
-7------------9-------------6------4----|
-7------------9-------------4------2----|
-5------------7-------------------------|

  sentir muy especial que mi cantar te pueda
-----5-----------7--------------4------2----|
-----5-----------7--------------5------4----|
-----6-----------8--------------6------4----|
-----7-----------9--------------6------4----|
-----7-----------9--------------4------2----|
-----5-----------7--------------------------|

 dar placer y asi juntos envejecer mas no podre aserte feliz
--------2------------------4-----------------------5---7---5-|
--------2------------------4-----------------------5---7---5-|
--------2------------------4-----------------------6---8---6-|
--------4------------------6-----------------------7---9---7-|
--------4------------------6-----------------------7---9---7-|
--------2------------------4-----------------------5---7---5-|

 ya decidi partir
----7---------0--------4---4---5---|
----7---------0--------4---5---5---|
----8---------1--------4---6---6---|
----9---------2--------6---6---7---|
----9---------2--------6---4---7---|
----7---------0--------4-------5---|

 vamos a continuaar con alegria y felicidad
-------4------2---------------------2-------|
-------4------2---------------------4-------|
-------4------2---------------------4-------|
-------6------4---------------------4-------|
-------6------4---------------------2-------|
-------4------2-----------------------------|

 vamos a continuaar nuestra afliccion
--------------2-----------------5------|
--------------2-----------------5------|
--------------2-----------------6------|
--------------4-----------------7------|
--------------4-----------------7------|
--------------2-----------------5------|

 nuestra afliccion...
-7------------0~-----|
-7------------0~-----|
-8------------1~-----|
-9------------2~-----|
-9------------2~-----|
-7------------0~-----|

CORO X 4 O 5 VECES NO ME ACUERDO JAJA
Suggest correction
Creating personal tab
Creating personal tab
You can edit any tab online and save it as your Personal.

You can edit, replace or remove any tab part or add personal notes – all changes will be seen only by you.

Personal tabs can be accessed anytime from any device, even offline.
Learn more »
comments
print report bad tab
guest
You may want to rate the tab now too:
select rating
Wanna post a correction for this tab? Suggest correction