Oops, an error
Loading. Please wait.

Pensando En Ti tab

version 3
version 3

Whole song

Interactive

1,375 views 1 this week
no commentswrite comment
1 2 3 4 5
2 more votes to show rating
add to favorites
×
Save as Personal and add changes to this tab that will be seen only by you. Learn more ›
×
You can save this tab as Personal to edit and correct it or add notes. All changes will be seen only by you. Learn more »
launch autoscroll
font size
0
reset
how to read this tab
guitar tuner
edit
Autoscroll
slow
fast
+/-
esc
set tempo
stop
Difficulty
Intro:

e:-----------------|-----------------|-----------------|-----------------|
B:-1---------1-----|-0---------0-----|-3---------0-----|-1---------1-----|
G:-------0-------0-|-------0-------0-|-------0-------0-|-------0-------0-|
D:-----2-------2---|-----2-------2---|-----2-------2---|-----2-------2---|
A:-3-------3-------|-3-------3-------|-3-------3-------|-3-------3-------|
E:-----------------|-----------------|-----------------|-----------------|


e:-----------------|-----------------|-----------------|-----------------|
B:-0---------0-----|-3---------3-----|-1---------1-----|-0---------0-----|
G:-------2-------2-|-------2-------2-|-------2-------2-|-------2-------2-|
D:-----2-------2---|-----2-------2---|-----2-------2---|-----2-------2---|
A:-0-------0-------|-0-------0-------|-0-------0-------|-0-------0-------|
E:-----------------|-----------------|-----------------|-----------------|


e:-----------------|-----------------|-----------------|-----------------|
B:-3---------3-----|-1---------1-----|-0---------0-----|-3---------3-----|
G:-------0-------0-|-------0-------0-|-------0-------0-|-------0-------0-|
D:-----2-------2---|-----2-------2---|-----2-------2---|-----2-------2---|
A:-3-------3-------|-3-------3-------|-3-------3-------|-3-------3-------|
E:-----------------|-----------------|-----------------|-----------------|

                                                                     Hay
e:-----------------|-----------------|-----------------|-----------------|
B:-1---------1-----|-0---------0-----|-3---------3-----|-1-------1---3---|
G:-------2-------2-|-------2-------2-|-------2-------2-|-----------------|
D:-----2-------2---|-----2-------2---|-----2-------2---|-----------------|
A:-0-------0-------|-0-------0-------|-0-------0-------|-0-------0---2---|
E:-----------------|-----------------|-----------------|-----------------|

Verso 1:

   ve................ces               que
e:-----------------|-----------------|-0--------0------|-0--------0------|
B:-1--------1------|-3--------3------|-------1-----1---|-------1-----1---|
G:-------0-----0---|-------0-----0---|----2-----------2|----2-----------2|
D:----2-----------2|----0-----------0|-0---------------|-0---------------|
A:-3---------------|-2---------------|-----------------|-----------------|
E:-----------------|-----------------|-----------------|-----------------|

   mi  alma  baila   tangos            con   la   soledad                          y
e:-3--------3------|-1--------1------|-0--------0------|-0---------------|
B:-------3-----3---|-------3-----3---|-------1-----1---|---------1---3---|
G:----0-----------0|----2-----------2|----2-----------2|-----------------|
D:-----------------|-0---------------|-0---------------|-0---------------|
A:-3---------------|-----------------|-----------------|---------0---2---|
E:-----------------|-----------------|-----------------|-----------------|

   necesito          de    tablar      tu amor
e:-----------------|-----------------|-0--------0------|-0--------0------|
B:-1--------1------|-3--------3------|-------1-----1---|-------1-----1---|
G:-------0-----0---|-------0-----0---|----2-----------2|----2-----------2|
D:----2-----------2|----0-----------0|-0---------------|-0---------------|
A:-3---------------|-2---------------|-----------------|-----------------|
E:-----------------|-----------------|-----------------|-----------------|

  para  hacerme    a ella           en mi tempestad
e:-3--------3------|-1--------1------|-0--------0------|-0--------0------|
B:-------3-----3---|-------3-----3---|-------1-----1---|-------1-----1---|
G:----0-----------0|----2-----------2|----2-----------2|----2-----------2|
D:-----------------|-0---------------|-0---------------|-0---------------|
A:-3---------------|-----------------|-----------------|-----------------|
E:-----------------|-----------------|-----------------|-----------------|


Coro:
                      Pensando   en    ti
e:-----------------|-----------------|-----------------|-----------------|
B:-3--------3------|-3--------3------|-1--------1------|-1--------1------|
G:-------0-----0---|-------0-----0---|-------2-----2---|-------2-----2---|
D:----0-----------0|----0-----------0|----2-----------2|----2-----------2|
A:-----------------|-----------------|-0---------------|-0---------------|
E:-2---------------|-3---------------|-----------------|-----------------|

   Paso  el  día     Pensando    en    ti                            En...
e:-----------------|-----------------|-----------------|-----------------|
B:-3--------3------|-3--------3------|-0h1------0------|-1-------1---3---|
G:-------0-----0---|-------0-----0---|-------2-----2---|-----------------|
D:----0-----------0|----0-----------0|----2-----------2|-----------------|
A:-----------------|-----------------|-0---------------|-0-------0---2---|
E:-2---------------|-3---------------|-----------------|-----------------|


Verso 2:


   se................ña................me
e:-----------------|-----------------|-0--------0------|-0--------0------|
B:-1--------1------|-3--------3------|-------1-----1---|-------1-----1---|
G:-------0-----0---|-------0-----0---|----2-----------2|----2-----------2|
D:----2-----------2|----0-----------0|-0---------------|-0---------------|
A:-3---------------|-2---------------|-----------------|-----------------|
E:-----------------|-----------------|-----------------|-----------------|

   a  escuhar         tus  labios      a   leer   el   sol
e:-3--------3------|-1--------1------|-0--------0------|-0---------------|
B:-------3-----3---|-------3-----3---|-------1-----1---|---------1---3---|
G:----0-----------0|----2-----------2|----2-----------2|-----------------|
D:-----------------|-0---------------|-0---------------|-0---------------|
A:-3---------------|-----------------|-----------------|---------0---2---|
E:-----------------|-----------------|-----------------|-----------------|

   llé...............va................me
e:-----------------|-----------------|-0--------0------|-0--------0------|
B:-1--------1------|-3--------3------|-------1-----1---|-------1-----1---|
G:-------0-----0---|-------0-----0---|----2-----------2|----2-----------2|
D:----2-----------2|----0-----------0|-0---------------|-0---------------|
A:-3---------------|-2---------------|-----------------|-----------------|
E:-----------------|-----------------|-----------------|-----------------|

   a donde           los sueños        fabrican  tu voz
e:-3--------3------|-1--------1------|-0--------0------|-0--------0------|
B:-------3-----3---|-------3-----3---|-------1-----1---|-------1-----1---|
G:----0-----------0|----2-----------2|----2-----------2|----2-----------2|
D:-----------------|-0---------------|-0---------------|-0---------------|
A:-3---------------|-----------------|-----------------|-----------------|
E:-----------------|-----------------|-----------------|-----------------|


Coro:
                      Pensando   en    ti
e:-----------------|-----------------|-----------------|-----------------|
B:-3--------3------|-3--------3------|-1--------1------|-1--------1------|
G:-------0-----0---|-------0-----0---|-------2-----2---|-------2-----2---|
D:----0-----------0|----0-----------0|----2-----------2|----2-----------2|
A:-----------------|-----------------|-0---------------|-0---------------|
E:-2---------------|-3---------------|-----------------|-----------------|

   Duermo en odio    Pensando    en    ti
e:-----------------|-----------------|-----------------|-----------------|
B:-3--------3------|-3--------3------|-0h1------0------|-1--------1------|
G:-------0-----0---|-------0-----0---|-------2-----2---|-------2-----2---|
D:----0-----------0|----0-----------0|----2-----------2|----2-----------2|
A:-----------------|-----------------|-0---------------|-0---------------|
E:-2---------------|-3---------------|-----------------|-----------------|

Esto pasa detrás del solo:


e:-----------------|-----------------|-3-----3---3-----|-3-----3---3-----|
B:-0-----1---0-----|-0-----1---0-----|-0---0-3---0-----|-0---0-3---0-----|
G:-2-----2---2-----|-2-----2---2-----|---------------0-|---------------0-|
D:-----2---------2-|-----2---------2-|-----------------|-----------------|
A:-0---------------|-0---------------|-----------------|-----------------|
E:-----------------|-----------------|-3---------------|-3---------------|


e:-----------------|-----------------|-1-----1---1-----|-----------------|
B:-0-----1---0-----|-0-----1---0-----|-3-----1---3-----|-0-----1---0-----|
G:-2-----2---2-----|-2-----2---2-----|-----2---------2-|-2-----2---2-----|
D:-----2---------2-|-----2---------2-|-0---------------|-----2---------2-|
A:-0---------------|-0---------------|-----------------|-0---------------|
E:-----------------|-----------------|-----------------|-----------------|


e:-----------------|-----------------|-3-----3---3-----|-3-----3---3-----|
B:-0-----1---0-----|-0-----1---0-----|-0---0-3---0-----|-0---0-3---0-----|
G:-2-----2---2-----|-2-----2---2-----|---------------0-|---------------0-|
D:-----2---------2-|-----2---------2-|-----------------|-----------------|
A:-0---------------|-0---------------|-----------------|-----------------|
E:-----------------|-----------------|-3---------------|-3---------------|

e:-----------------|-----------------|-----------------|-----------------|
B:-1---------1-----|-0---------0-----|-3---------0-----|-1---------1-----|
G:-------0-------0-|-------0-------0-|-------0-------0-|-------0-------0-|
D:-----2-------2---|-----2-------2---|-----2-------2---|-----2-------2---|
A:-3-------3-------|-3-------3-------|-3-------3-------|-3-------3-------|
E:-----------------|-----------------|-----------------|-----------------|


e:-----------------|-----------------|-----------------|-----------------|
B:-0---------0-----|-3---------3-----|-1---------1-----|-0---------0-----|
G:-------2-------2-|-------2-------2-|-------2-------2-|-------2-------2-|
D:-----2-------2---|-----2-------2---|-----2-------2---|-----2-------2---|
A:-0-------0-------|-0-------0-------|-0-------0-------|-0-------0-------|
E:-----------------|-----------------|-----------------|-----------------|


e:-----------------|-----------------|-----------------|-----------------|
B:-3---------3-----|-1---------1-----|-0---------0-----|-3---------3-----|
G:-------0-------0-|-------0-------0-|-------0-------0-|-------0-------0-|
D:-----2-------2---|-----2-------2---|-----2-------2---|-----2-------2---|
A:-3-------3-------|-3-------3-------|-3-------3-------|-3-------3-------|
E:-----------------|-----------------|-----------------|-----------------|


e:-----------------|-----------------|-----------------|-----------------|
B:-1---------1-----|-0---------0-----|-3---------3-----|-1-------1---3---|
G:-------2-------2-|-------2-------2-|-------2-------2-|-----------------|
D:-----2-------2---|-----2-------2---|-----2-------2---|-----------------|
A:-0-------0-------|-0-------0-------|-0-------0-------|-0-------0---2---|
E:-----------------|-----------------|-----------------|-----------------|


Verso 3:


   Don...............de                estas
e:-----------------|-----------------|-0--------0------|-0--------0------|
B:-1--------1------|-3--------3------|-------1-----1---|-------1-----1---|
G:-------0-----0---|-------0-----0---|----2-----------2|----2-----------2|
D:----2-----------2|----0-----------0|-0---------------|-0---------------|
A:-3---------------|-2---------------|-----------------|-----------------|
E:-----------------|-----------------|-----------------|-----------------|

   tengo  miedo      ayúdame           a caminar
e:-3--------3------|-1--------1------|-0--------0------|-0---------------|
B:-------3-----3---|-------3-----3---|-------1-----1---|---------1---3---|
G:----0-----------0|----2-----------2|----2-----------2|-----------------|
D:-----------------|-0---------------|-0---------------|-0---------------|
A:-3---------------|-----------------|-----------------|---------0---2---|
E:-----------------|-----------------|-----------------|-----------------|

   pues  solo        nunca             yo podre encontrar
e:-----------------|-----------------|-0--------0------|-0--------0------|
B:-1--------1------|-3--------3------|-------1-----1---|-------1-----1---|
G:-------0-----0---|-------0-----0---|----2-----------2|----2-----------2|
D:----2-----------2|----0-----------0|-0---------------|-0---------------|
A:-3---------------|-2---------------|-----------------|-----------------|
E:-----------------|-----------------|-----------------|-----------------|

   la  forma         de  ser  libre    quiero despertar
e:-3--------3------|-1--------1------|-0--------0------|-0--------0------|
B:-------3-----3---|-------3-----3---|-------1-----1---|-------1-----1---|
G:----0-----------0|----2-----------2|----2-----------2|----2-----------2|
D:-----------------|-0---------------|-0---------------|-0---------------|
A:-3---------------|-----------------|-----------------|-----------------|
E:-----------------|-----------------|-----------------|-----------------|


Coro:
                      Pensando   en    ti
e:-----------------|-----------------|-----------------|-----------------|
B:-3--------3------|-3--------3------|-1--------1------|-1--------1------|
G:-------0-----0---|-------0-----0---|-------2-----2---|-------2-----2---|
D:----0-----------0|----0-----------0|----2-----------2|----2-----------2|
A:-----------------|-----------------|-0---------------|-0---------------|
E:-2---------------|-3---------------|-----------------|-----------------|

    Acuno mi alma    Pensando    en    ti        (Pensando en ti)
e:-----------------|-----------------|-----------------|-----------------|
B:-3--------3------|-3--------3------|-0h1------0------|-1--------1------|
G:-------0-----0---|-------0-----0---|-------2-----2---|-------2-----2---|
D:----0-----------0|----0-----------0|----2-----------2|----2-----------2|
A:-----------------|-----------------|-0---------------|-0---------------|
E:-2---------------|-3---------------|-----------------|-----------------|


    Paso el día      Pensando   en    ti         (Pensando en ti)
e:-----------------|-----------------|-----------------|-----------------|
B:-3--------3------|-3--------3------|-1--------1------|-1--------1------|
G:-------0-----0---|-------0-----0---|-------2-----2---|-------2-----2---|
D:----0-----------0|----0-----------0|----2-----------2|----2-----------2|
A:-----------------|-----------------|-0---------------|-0---------------|
E:-2---------------|-3---------------|-----------------|-----------------|

    Paso el día      Pensando    en    ti
e:-----------------|-----------------|-----------------|-----------------|
B:-3--------3------|-3--------3------|-0h1------0------|-1--------1------|
G:-------0-----0---|-------0-----0---|-------2-----2---|-------2-----2---|
D:----0-----------0|----0-----------0|----2-----------2|----2-----------2|
A:-----------------|-----------------|-0---------------|-0---------------|
E:-2---------------|-3---------------|-----------------|-----------------|


Solo de Guitarra Eléctrica:

e:--12--------------------------------------------------------------------------|
B:-----15-13-12-13-15--13-12----12-13--12------12-13-12-------------------------|
G:---------------------------14-----------14~-----------14-12-14-12-------------|
D:------------------------------------------------------------------14-12-14~---|
A:------------------------------------------------------------------------------|
E:------------------------------------------------------------------------------|

e:---------------------------------------------------------------12-13/15-15----|
B:--15-13-12-13-15--13-12----12-13--12------12-13-12----12-13-15----------------|
G:------------------------14-----------14~-----------14-------------------------|
D:------------------------------------------------------------------------------|
A:------------------------------------------------------------------------------|
E:------------------------------------------------------------------------------|


e:--13-15-13-12-13-12----12------------------------------------------|
B:--------------------15----15-13-15-13-12-13-12---------------------|
G:-----------------------------------------------14--14--------------|
D:-------------------------------------------------------------------|
A:-------------------------------------------------------------------|
E:-------------------------------------------------------------------|

e:-----------------------12-------12-------12-13/15-15---------------|
B:-----12-13----12-13-15----13-15----13-15---------------------------|
G:--14-------14------------------------------------------------------|
D:-------------------------------------------------------------------|
A:-------------------------------------------------------------------|
E:-------------------------------------------------------------------|

e:--13-15-13-12-13-12----12------------------------------------------|
B:--------------------15----15-13-15-13-12-13-12---------------------|
G:-----------------------------------------------14--14--------------|
D:-------------------------------------------------------------------|
A:-------------------------------------------------------------------|
E:-------------------------------------------------------------------|

            
            
Suggest correction
Creating personal tab
Creating personal tab
You can edit any tab online and save it as your Personal.

You can edit, replace or remove any tab part or add personal notes – all changes will be seen only by you.

Personal tabs can be accessed anytime from any device, even offline.
Learn more »
Give kudos to tab author, rate the tab!
1 2 3 4 5
comments
print report bad tab
guest
Wanna post a correction for this tab? Suggest correction