Oops, an error
Loading. Please wait.

Känn Ingen Sorg För Mig Göteborg chords

version 4
version 4

Whole song

94,235 views 201 this week
3 commentsread comments
1 2 3 4 5
x 53
add to favorites
×
Save as Personal and add changes to this tab that will be seen only by you. Learn more ›
×
You can save this tab as Personal to edit and correct it or add notes. All changes will be seen only by you. Learn more »
launch autoscroll
font size
0
reset
transpose
0
reset
simplify chords
display chords
guitar tuner
edit
Autoscroll
slow
fast
+/-
esc
set tempo
stop
Author
Difficulty
Unregistered
intermediate
Strumming
There is no strumming pattern for this song yet. and get +5 IQ
C/B: x20010 
F:   xx3211
F/E: xx2211



|C  C/B |Am G  |F  F/E |Dm  G  |
|C  C/B |Am G  |F  F/E |Dm  G  |

Sologitarr:

  C      C/B        Am    G            F       F/E          Dm      G
e|-------8h10-8---|------------------|--------------------|-----------------|
B|-8---8--------8-|-------10h12-10---|---------8h10---8---|-----------------|
G|----------------|-9---9----------9-|--------------------|-----7---9--10---|
D|----------------|------------------|-10---10------------|-10--------------|
A|----------------|------------------|--------------------|-----------------|
E|----------------|------------------|--------------------|-----------------|

  C      C/B        Am    G            F       F/E          Dm      G   
e|-------8h10-8---|------------------|--------------------|-----------------|
B|-8---8--------8-|-------10h12-10---|---------8h10---8---|-------------8---|
G|----------------|-9---9----------9-|--------------------|-----7---9-------|
D|----------------|------------------|-10---10------------|-10--------------|
A|----------------|------------------|--------------------|-----------------|
E|----------------|------------------|--------------------|-----------------|

 (versen börjar...)
e|----------------|
B|----------------|
G|----------------|
D|-10-------------|
A|----------------|
E|----------------|


C                        F
  Ge mig arsenik, pa-pa-pa
                                     C
  För stan är full av tanter och tragik
           C/B        Am           G             F
  Pulver hjälpte mig verkligen, skriv det här i tidningen
               G                C   C/B   Am
  För jag var nere men uppe på fem
  G     F   G
  A- A- A
  
C                               F
  Lillebror (lillebror), pa-pa-pa
                                 C
  Bli inte som jag när du blir stor
             C/B        Am            G                 F
  Du stod i dörren och sa: Är det här allt det blir så dör jag!
         G                  C   C/B   Am
  Lillebror bli aldrig som jag!
  G     F   G
  A- A- A

C      C/B    Am       G       F
  Känn ingen sorg för mig Göteborg
           G         C        C/B    Am             G   F
  Och Singoalla tror att, om himlen finns är jag förlorad
                  G                C
  men känn ingen sorg för mig Göteborg

    C/B|Am G  |F     |G     |
|C  C/B|Am G  |F     |G     |

C                     F         
  På diskotek, pa-pa-pa
                                             C
  Men jag tar allting på lek, även en hemlighet
               C/B  Am             G
  Ta mig till kärlek, ta mig till dans
F                 G             C   C/B   Am
  Ge mig nåt som tar mig någonstans
  G     F
  A- A- A
                G              C
  för jag vill veta om kärlek finns

       C/B    Am       G       F
  Känn ingen sorg för mig Göteborg
           G         C        C/B    Am             G   F
  Och Singoalla tror att, om himlen finns är jag förlorad
                  G                C   C/B   Am
  men känn ingen sorg för mig Göteborg
  G     F              G                C
  M- m- m, känn ingen sorg för mig Göteborg

    C/B|Am G  |F     |G     |

Am                 
  Det var en kväll
C              Am
  på ett diskotek
                        G           F
  Och jag följde varje hennes danssteg
                 G                  F
  Och vi kanske ses, det finns en chans
              G                  F
  (Vi kanske ses, det finns en chans)
           G           C
  på nån spårvagn nånstans

    C/B|Am G  |F     |G     |

    C   C/B  Am    G    F      G
  Cha! Cha! Cha! Cha! Cha! Ey!
 
     D   D/C#   Bm
  A- A,
  A     G   A
  A- A- A

|D D/C#|Bm A|G     |A     |

C      C/B    Am       G       F
  Känn ingen sorg för mig Göteborg
          G         C       G/D    C/E            G   F/A
  Jag vet alla tror att om himlen finns är jag förlorad
                  G/B              C
  Men känn ingen sorg för mig Göteborg

            
            
Suggest correction
Creating personal tab
Creating personal tab
You can edit any tab online and save it as your Personal.

You can edit, replace or remove any tab part or add personal notes – all changes will be seen only by you.

Personal tabs can be accessed anytime from any device, even offline.
Learn more »
comments
print report bad tab
3 comments total.
0 reply
hateregistering 10 Nov 24, 2013 06:24 AM

Perfekt!!!

-1 reply
mollemorito 12 Mar 20, 2015 10:26 AM

hur fan strummar man.....

0 reply
Pede89denmark 129 Jul 11, 2016 09:45 AM

Super fed tab!

Ville bare lige poste tremolo delen mellem omkvæd og vers:

e|--8s-----7s-----|--5s------3s-----|--1s--0s----------|-----0s--1s--3s--|
B|----------------|-----------------|----------3s--1s--|--3s-------------|
G|----------------|-----------------|------------------|-----------------|
D|----------------|-----------------|------------------|-----------------|
A|----------------|-----------------|------------------|-----------------|
E|----------------|-----------------|------------------|-----------------|

guest
Wanna post a correction for this tab? Suggest correction