Oops, an error
Loading. Please wait.

Julia Florida Barcarola tab

version 2
version 2

Whole song

Interactive

3,582 views 6 this week
no commentswrite comment
1 2 3 4 5
1 last vote to show rating
add to favorites
×
Save as Personal and add changes to this tab that will be seen only by you. Learn more ›
×
You can save this tab as Personal to edit and correct it or add notes. All changes will be seen only by you. Learn more »
launch autoscroll
font size
0
reset
how to read this tab
guitar tuner
edit
Autoscroll
slow
fast
+/-
esc
set tempo
stop
Author
Tabbers playing skills
advanced
E-|---Song:-Julia-Flordia--------------------------|
A-|---Composer:-Augustin-Barrios-------------------|
D-|---Transcription-by:Christian Liang-------------|
G-|---E-Mail:christian.liang@gmail.com-------------|   
B-|---http://www.classclef.com---------------------|
E-|---Enjoy!---------------------------------------|

==========================================================================
        Julia Florida (Barcarola) by Augustin Barrios (1885-1944)
==========================================================================


Time Signature 6/8 
Key Signature D Major
Beat 75
62 bars


[1]
E|-------------------5=============-|-------------------5----7----5----|
B|----------------------------------|----------------------------------|
G|-------------------6=============-|-------------------6=============-|
D|--------------4-/--5=============-|--------------4----5=============-|
A|---------0------------------------|---------0------------------------|
D|----0-----------------------------|----0-----------------------------|
 |    |    |    |    |    |    |    |    |    |    |    |    |    |    |
L               1    2                             1    2    4    2
                     3                                  3
                     1                                  1

[3]
E|----------------------------------|----------------------------------|
B|----------------------------------|------------------------0----2----|
G|----------------------------------|-------------------0=============-|
D|-4/-7--------------7----9----7----|----7--------------7--------------|
A|---------0----9----10============-|---------0----9-------------------|
D|----0==============---------------|----0==============---------------|
 |    |    |    |    |    |    |    |    |    |    |    |    |    |    |
L     1         3    1    3    1         1         3    1         2
                     4                                  


[5]                  III3...........
E|----------------------------------|----------------------------------|
B|----3--------------3----5----3----|----3--------------3----5----3----|
G|--------------2----3=============-|--------------4----5=============-|
D|---------0------------------------|---------0------------------------|
A|----------------------------------|----------------------------------|
D|----4==============---------------|----5==============---------------|
 |    |    |    |    |    |    |    |    |    |    |    |    |    |    |
L     2         1    1                   1         2    1    3    1
      3              1                   3              2

[7]                                      II5............................
E|----3--------------2----0----3----|----2-----------------------------|
B|--------------3----3=============-|--------------3---------2----3----|
G|---------0------------------------|-------------------4=============-|
D|----------------------------------|---------4------------------------|
A|----2==============---------------|----2==============---------------|
D|----------------------------------|----------------------------------|
 |    |    |    |    |    |    |    |    |    |    |    |    |    |    |
L     4         3    2         4         1    3    2    4    1    2
      1              3                   1

[9]
E|----0--------------0--------------|----------------------------------|
B|--------------3---------7----3----|----5-----------------------------|
G|----------------------------------|-------------------0=============-|
D|---------4---------6=============-|---------9--/-12---11---9---------|
A|----2==============---------------|----0==============---------<12>--|
D|----------------------------------|----------------------------------|
 |    |    |    |    |    |    |    |    |    |    |    |    |    |    |
L     1    3    2    3    4    1         1    4    4    3    1    4 


[11]
E|----------------------------------|----------------------------------|
B|----------------------------------|------------------------0----2----|
G|----------------------------------|-------------------0=============-|
D|-4/-7--------------7----9----7----|----7--------------7--------------|
A|---------0----9----10============-|---------0----9-------------------|
D|----0==============---------------|----0==============---------------|
 |    |    |    |    |    |    |    |    |    |    |    |    |    |    |
L     1         3    1    3    1         1         3    1         2
                     4                                  

[13]
E|----------------------------------|----7--------------0--------------|
B|----3--------------3----5----3----|--------------0---------7----8----|
G|--------------2----5=============-|-------------------6=============-|
D|---------0------------------------|---------0------------------------|
A|----------------------------------|----------------------------------|
D|----4==============---------------|----5==============---------------|
 |    |    |    |    |    |    |    |    |    |    |    |    |    |    |
L     2         1    1    3    1         4              1    2    3
      3              2                   1

[15]  IX5........... VII5...........     IV4...........
E|-------------------7----9----10---|----5=============-7----9----10---|
B|----10============-8=============-|-------------------0=============-|
G|--------------9----7=============-|----6----7----6----0=============-|
D|---------11-----------------------|----4=============----------------|
A|----9=============-7=============-|----------------------------------|
D|----------------------------------|----------------------------------|
 |    |    |    |    |    |    |    |    |    |    |    |    |    |    |
L     2    3    1    1    3    4         2    4    3    1    3    4
      1              2                   3
                     1                   1
                     1

      to coda (second time)    
[17]                                                    
E|----5=============-5=============-|----5=============-5----7----5----|
B|----5----3----0----2h3p2p0---2----|----3=============----------------|
G|-------------------0=============-|-------------------6=============-|
D|----4=============----------------|----4---------4----5=============-|
A|----0=============----------------|---------0------------------------|
D|----------------------------------|----0=============----------------|
 |    |    |    |    |    |    |    |    |    |    |    |    |    |    |
L     4    1         4                   4         2    2    4    2
      3              1h2p1     1         1              3
      2                                  2              1
               

                     
[19]                 II5...............................................
E|----5=============----------------|----------------------------------|
B|----3=============-2=============-|----3=============-2=============-|
G|-------------------2----4----2----|----2----4----2----3--------------|
D|----4---------4----5=============-|----4=============-4----5----4----|
A|---------0------------------------|----------------------------------|
D|----0=============----------------|----------------------------------|
 |    |    |    |    |    |    |    |    |    |    |    |    |    |    |
L     4         2    1    3    1         2    4    1    1    4    3
      1              1                   1              2
      2              4                   3              3 

[21]                        
E||---------------------------------|----------------------------------|
B||-------------0--------------0----|--------------0--------------0----|
G||*-----------------0--------------|-------------------0--------------|
D||*--4--------------2--------------|----4--------------2--------------|
A||---5-p--2--------------4---------|----5-p--2--------------4---------|
D||---------------------------------|----------------------------------|
 |    |    |    |    |    |    |    |    |    |    |    |    |    |    |
L     3    1         1    3              3    1         1    3
      4                                  4


[23]                 II5...... 
E|----------------------------------|----------------------------------|
B|--------------0-------------------|-----------------------------2----|
G|------------------------2----0----|---------0--------------3---------|
D|----4--------------2--------------|----4---------2----4--------------|
A|----5-p--2---------4=============-|----5=============-4=============-|
D|----------------------------------|----------------------------------|
 |    |    |    |    |    |    |    |    |    |    |    |    |    |    |
L     3    1         1    1              3         1    4    2    1
      4              3                   4              3

[25]
E|----2---------2---------2---------|----0---------0---------0---------|
B|-------------------3========-3----|-------------------2========-2----|
G|-------------------4=============-|---------0---------4=============-|
D|---------4------------------------|----------------------------------|
A|----------------------------------|----------------------------------|
D|----0-----------------------------|----2-----------------------------|
 |    |    |    |    |    |    |    |    |    |    |    |    |    |    |
L     1    3    1    2    1    2         1              2         2   
                     4                                  4
[27]                                     IV5....
E|----------------------------------|----------------------------------|
B|----3---------3----0----<12>------|----5--------------0----5----8----|
G|-----------------------------<12>-|----4-----------------------------|
D|---------4------------------------|----------------------------------|
A|----------------------------------|----4----7-/--10------------------|
D|----4-----------------------------|----------------------------------|
 |    |    |    |    |    |    |    |    |    |    |    |    |    |    |
L     2    4    2         4    4         2    4    4         1    4
      3                                  1
                                         1

[29]  V............................
E|----------------------------------|----------------------------------|
B|----8=============-7----5----8----|----7=============-0----2----3----|
G|----------------------------------|----------------------------------|
D|--------------8-------------------|---------0---------4=============-|
A|---------5------------------------|----0---------7-------------------|
D|----5=============----------------|----------------------------------|
 |    |    |    |    |    |    |    |    |    |    |    |    |    |    |
L     4    1    3    2    1    4         4         2    3    1    2
      1

      ______________________________
[31] |1.
      II.................................................
E|----------------------------------|---------------------------------||
B|----5=============-2=============-|----2=============---------------||
G|--------------4--------------4----|---------3----------------------*||
D|---------5--------------2---------|--------------4----4------------*||
A|----------------------------------|-------------------1----2----4---||
D|----2=============-5=============-|----4=============---------------||
 |    |    |    |    |    |    |    |    |    |    |    |    |    |    |
L     4    3    2    1    1    2         1    2    4    4    2    3
      1              3                   3              1
      ______________________________
[33] |2.
E|----0--------------2--------------|----------------------------------|
B|--------------3--------------2----|----3=============----------------|
G|---------1--------------0---------|----------------------------------|
D|----------------------------------|----4=============-----------0----|
A|-------------------0=============-|---------0----2---------0---------|
D|----2==============---------------|----0=============-4=============-|
 |    |    |    |    |    |    |    |    |    |    |    |    |    |    |
L     2    1    4    3         2         2         1    3
                                         4

[35]                                     VII........... V..............
E|---------0-------------------12---|----10---9----7----5=============-|
B|--------------10------------------|---------7--------------8----7----|
G|--------------12-------------12---|-------------------5=============-|
D|---------11-----------------------|----0==============---------------|
A|----9==============-----12--------|-------------------6=============-|
D|-------------------11============-|----------------------------------|
 |    |    |    |    |    |    |    |    |    |    |    |    |    |    |
L     1    3    2    1    2    4         4    3    1    1    4    3
                4              3              1         1
                                                        2

[37]  
E|----3p2--0------------------------|----------------------------------|
B|----0---------0----2h3p2----------|----------------------------------|
G|-------------------0----4----2----|----4--------------4----6----2----|
D|----2==============---------------|--------------4----5=============-|
A|-------------------0=============-|---------0------------------------|
D|----------------------------------|----0==============---------------|
 |    |    |    |    |    |    |    |    |    |    |    |    |    |    |
L     4p2            1h2  3    1         4         3    2    4    1
      1                                                 3
       

[39]                      II........     IV.............
E|----------------------------------|----------------------------------|
B|------------------------2---------|----------------------------------|
G|----4--------------4---------2----|----------------------------------|
D|--------------4----3=============-|----4--------------3=============-|
A|---------0------------------------|--------------4----5=============-|
D|----0==============---------------|----4----7------------------------|
 |    |    |    |    |    |    |    |    |    |    |    |    |    |    |
L     4         3    3    1    1         1    4    1    1
                     2                   1              3

[41]  IV.............                    IV............................
E|----------------------------------|----------------------------------|
B|----------------------------------|--------------7----6=============-|
G|----------------------------------|-------------------4=============-|
D|----4--------------3----4----6----|----7---------7-------------------|
A|--------------4----5=============-|---------4------------------------|
D|----4----7------------------------|----4==============---------------|
 |    |    |    |    |    |    |    |    |    |    |    |    |    |    |
L     1    4    1    1    2    4         3    1    4    2
      1              3                   1         3    1

[43]  IV............                     I3............................
E|-------------------1----2----4----|----2--------------1--------------|
B|----7--------------0=============-|--------------1--------------2----|
G|----------------------------------|---------1--------------1---------|
D|--------------7-------------------|----0==============---------------|
A|---------4------------------------|-------------------4=============-|
D|----4==============---------------|----------------------------------|
 |    |    |    |    |    |    |    |    |    |    |    |    |    |    |
L     4    1    3    1    2    4         2    1    1    1    1    2
      1                                                 4

[45]                                     II5...........
E|-------------------0--------------|----------------------------------|
B|--------------2---------7----8----|----3------------------------0----|
G|---------0------------------------|--------------4-------------------|
D|----------------------------------|---------4--------------3---------|
A|----1==============---------------|----2=============-0=============-|
D|----------------------------------|----------------------------------|
 |    |    |    |    |    |    |    |    |    |    |    |    |    |    |
L     1         2         2    3         2    3    4         4
                                         1

[47]
E|-------------------0----1---------|------------------------0----5----|
B|--------------0--------------3----|----1--------------1--------------|
G|----------------------------------|--------------2-------------------|
D|----------------------------------|---------2------------------------|
A|---------7------------------------|----0==============---------------|
D|-3/-6-----------------------------|----------------------------------|
 |    |    |    |    |    |    |    |    |    |    |    |    |    |    |
L     3    4              1    4         1    2    3    1         2


[49]                 IV.............
E|---------5----7----5h7p5----------|------------------------0----5----|
B|-------------------6----6---------|-------------------1--------------|
G|-------------------4========-4----|--------------2-------------------|
D|----------------------------------|---------2------------------------|
A|----------------------------------|----0==============---------------|
D|----0==============---------------|----------------------------------|
 |    |    |    |    |    |    |    |    |    |    |    |    |    |    |
L          2    4    2h4p33    1              2    3    1         2
                     1

[51]                 IV.............                              V....
E|---------5----7----5h7p5----------|------------------------0----5----|
B|-------------------6----6---------|-------------------1--------------|
G|-------------------4========-4----|--------------2-------------------|
D|----------------------------------|---------2------------------------|
A|----------------------------------|----0==============---------------|
D|----0==============---------------|----------------------------------|
 |    |    |    |    |    |    |    |    |    |    |    |    |    |    |
L          2    4    2h4p33    1              2    3    1         1
                     1


[53]  V..............................    IV............................
E|----------------------------------|----------------------------------|
B|------------------------5---------|------------------------4---------|
G|-------------------6--------------|-------------------5--------------|
D|--------------7--------------<7>--|--------------7--------------<7>--|
A|---------7------------------------|---------6------------------------|
D|----5==============---------------|----4==============---------------|
 |    |    |    |    |    |    |    |    |    |    |    |    |    |    |
L     1    3    4    2    1    4         1    3    4    2    1    4


                                       D.C. al Coda (beginning to Coda)
[55]  III...........................     II............................
E|----------------------------------|----------------------------------|
B|------------------------3---------|------------------------2---------|
G|-------------------4--------------|-------------------4--------------|
D|--------------5--------------<7>--|--------------5--------------<7>--|
A|---------5------------------------|---------4------------------------|
D|----3==============---------------|----2==============---------------|
 |    |    |    |    |    |    |    |    |    |    |    |    |    |    |
L     1    3    4    2    1    4         1    2    4    3    1    4


[57]  CODA
E|----5=============-5----7----5----|----5=============-0=============-|
B|----3=============-6=============-|----3=============-10---12---10---|
G|----------------------------------|-------------------0--------------|
D|----4========-4----5=============-|----4========-4----11============-|
A|---------0------------------------|---------0------------------------|
D|----0==============---------------|----0==============---------------|
 |    |    |    |    |    |    |    |    |    |    |    |    |    |    |
L     4         2    2    4    2         4         2    1    3    1
      1              3                   1              2
      2              1                   2              
               

[59]
E|----5-----------------------------|----------------------------------|
B|----------------------------------|-----------------------<7>-<10>(22)
G|----------------------------------|------------------<7>-------------|
D|-------------------0--------------|---<12>------<7>------------------|
A|--------------0---------9----<12>-|----------------------------------|
D|----0----4------------------------|--------<9>-----------------------|
 |    |    |    |    |    |    |    |    |    |    |    |    |    |    |
L     4    1              1    4         4    1    1    1    1    4         
    

[61]
E|----<10>(22)----------------------|----------------------------------|
B|----------------------------------|----------------------------------|
G|-------------------<7>------------|----------------------------------|
D|-------------------<7>------------|----<12>=========================-|
A|----------------------------------|----------------------------------|
D|----------------------------------|----<12>=========================-|
 |    |    |    |    |    |    |    |    |    |    |    |    |    |    |
L     4              1                   4  
                     1                   3                      


======
Legend
======
Left                       Right
p = pull off               p = pulgar = thumb     
h = hammer on              i = indice = index     
/ = slide                  m = medio = middle     
= = suspend/hold Note      a = anular = ring      
I2 = Barre at fret 1
     bottom 2 strings
<12> Natural harmonics
(12) Artificial harmonics


dal Capo al Coda - Play from beginning to Coda.
Coda (Italian for "tail") 





            
            
Suggest correction
Creating personal tab
Creating personal tab
You can edit any tab online and save it as your Personal.

You can edit, replace or remove any tab part or add personal notes – all changes will be seen only by you.

Personal tabs can be accessed anytime from any device, even offline.
Learn more »
Give kudos to tab author, rate the tab!
1 2 3 4 5
comments
print report bad tab
guest
You may want to rate the tab now too:
select rating
Wanna post a correction for this tab? Suggest correction