Oops, an error
Loading. Please wait.

Claudia Ii Tab

1,445 views 1 this week
no commentswrite comment
1 2 3 4 5
please rate
add to favorites
launch autoscroll
font size
0
reset
how to read this tab
guitar tuner
Tab Pro tools
  • play this tab
  • loop segment
  • change instrument
  • show fretboard
  • metronome
×
Best way to learn
"Claudia Ii"
Autoscroll
slow
fast
+/-
esc
set tempo
stop
Contributor
Claudia II
==========
(M/T: Felsenheimer/Urlaub)


Anm: Verzerrt
   D   C   A   A4  G   G7
1:-5-|-3-|-0-|-0-|-3-|-13-|
2:-7-|-5-|-2-|-3-|-3-|-12-|
3:-7-|-5-|-2-|-2-|-4-|-12-|
4:-7-|-5-|-2-|-2-|-5-|-12-|
5:-5-|-3-|-0-|-0-|-5-|-10-|
6:---|---|---|---|-3-|----|



Intro:
|   A          | D         C | D         F | D                       A  |
|1:------------|-------------|-------------|----------------------------|
|2:-2----------|-7---------5-|-7--------10-|-7-----------------------2--|
|3:-2fdk...----|-7---------5-|-7--------10-|-7-----------------------2--|
|4:-2----------|-7---------5-|-7--------10-|-7-----------------------2--|
|5:-0----------|-5---------3-|-5---------8-|-5-----------------------0--|
|6:------------|-------------|-------------|----------------------------|
|              |             |             |                            |
|1:------------|-------------|-------------|----------------------------|
|2:------------|-------------|---------6---|----------------------------|
|3:------------|---7^5---5-7-|---7^5-----7-|---7^5----5-----------------|
|4:------------|-------7-----|-------7-----|-------7----7^5--7^5---6/7--|
|5:------------|-------------|-------------|---------------------8------|
|6:------------|-------------|-------------|----------------------------|


|   D         C | D         F | D                                    A  |
|1:-------------|-------------|-----------------------------------------|
|2:-7---------5-|-7--------10-|-7------------------------------------2--|
|3:-7---------5-|-7--------10-|-7------------------------------------2--|
|4:-7---------5-|-7--------10-|-7------------------------------------2--|
|5:-5---------3-|-5---------8-|-5------------------------------------0--|
|6:-------------|-------------|-----------------------------------------|
|               |             |                                         |
|1:-------------|---------5---|---13^10-----10--------------------------|
|2:---7^5---5-7-|---7^5---7---|---------13-----13^10--13^10-------------|
|3:---7^5---5-7-|---7^5-----5-|-----------------------------12-12b..14--|
|4:-------7-----|-------7-----|-----------------------------------------|
|5:-------------|-------------|-----------------------------------------|
|6:-------------|-------------|-----------------------------------------|


1.Strophe(gesprochen):
D(Fill1)       C             D                      C      (Fill2)
Claudias Vater wollte nicht, dass sie vom Hund 'nen Welpen kriegt.
D                    C             D              A
  Damit sie nicht so an ihm hängt, hat er ihr ein Pferd geschenkt.

Fill1:   Fill2:
1:------|-----|
2:------|-----|
3:--14--|-----|
4:------|-----|
5:------|-----|
6:------|--8--|


Refrain:
D           A         A4     A     G                A      A4     A
Claudia hat jetzt ein Pferd,   mit dem sie ziemlich oft verkehrt.
D               A    A4     A      G                  G     G7 G7 G7 G7
Sie ist bei ihm jede Nacht,   Gott weiß, was sie dort macht.


2.Strophe:
D                          C(Fill3)     D                         C(Fill4)
Claudia sagte sofort: "Ja!",        der Vater dachte: "wunderbar!"
D                            C    D               A
Dabei wusste Claudia längst:   Es handelt sich um einen Hengst.


Fill3:         Fill4:
1:------------|-----------|
2:------------|-----------|
3:--10b11r10--|-----------|
4:------------|--10b..11--|
5:------------|-----------|
6:------------|-----------|


Refrain:
D           A         A4     A     G                A      A4     A
Claudia hat jetzt ein Pferd,   mit dem sie ziemlich oft verkehrt.
D               A    A4     A      G                  G     G7 G7 G7 G7
Sie ist bei ihm jede Nacht,   Gott weiß, was sie dort macht.


Interlude:
|   D         C | D         F | D                       A  |
|1:-------------|-------------|----------------------------|
|2:-7---------5-|-7--------10-|-7-----------------------2--|
|3:-7---------5-|-7--------10-|-7-----------------------2--|
|4:-7---------5-|-7--------10-|-7-----------------------2--|
|5:-5---------3-|-5---------8-|-5-----------------------0--|
|6:-------------|-------------|----------------------------|
|               |             |                            |
|1:-------------|-------------|----------------------------|
|2:-------------|---------6---|----------------------------|
|3:---7^5---5-7-|---7^5-----7-|---7^5----5-----------------|
|4:-------7-----|-------7-----|-------7----7^5--7^5---6/7--|
|5:-------------|-------------|---------------------8------|
|6:-------------|-------------|----------------------------|


|   D              C | D             F | D                               A  |
|1:------------------|-----------------|------------------------------------|
|2:-7--------------5-|-7------------10-|-7-------------------------------2--|
|3:-7--------------5-|-7------------10-|-7-------------------------------2--|
|4:-7--------------5-|-7------------10-|-7-------------------------------2--|
|5:-5--------------3-|-5-------------8-|-5-------------------------------0--|
|6:------------------|-----------------|------------------------------------|
|                    |                 |                                    |
|1:---13^10----------|-----------------|------------------------------------|
|2:---------13-10----|---8^10^8--------|------------------------------------|
|3:---------------12-|----------7-10-7-|---10--12--10--12--12--10--12b..14--|
|4:------------------|-----------------|------------------------------------|
|5:------------------|-----------------|------------------------------------|
|6:------------------|-----------------|------------------------------------|


3.Strophe(Das A die 1. Zeile über mit dem Tremolo weiterspielen):
    D                                 C      D                             C
Der Schäferhund ist nichts mehr wert,   weil sie nur auf ihr Pferd abfährt.
     D                             C(Fill5)  D            A
Doch sie wünscht sich von ihren Tanten    zu Ostern einen   Elefanten...


Fill5: 4:--10~--|


Refrain:
D           A         A4     A     G                A      A4     A
Claudia hat jetzt ein Pferd,   mit dem sie ziemlich oft verkehrt.
D               A    A4     A      G                  G     G7 G7 G7 G7
Sie ist bei ihm jede Nacht,   Gott weiß, was sie dort macht.

D           A                    G                A
Claudia hat jetzt ein Pferd, mit dem sie manchmal Auto fährt.
D(Fill6)        A                G                  G     G7(-->Dudelsack-Outro)
Sie ist bei ihm jede Nacht, Gott weiß, was sie dort macht.


Fill6:
    D     A        G
1:--------------|-------------------|
2:--------------|-------------------|
3:--------------|---------------12--|
4:-/12-12-9-----|--9------9-12------|
5:----------12--|-----10------------|
6:--------------|-------------------|


Dudelsack-Outro (Mit G7; Klingt wie ein Dudelsack, ist aber Gitarre!):
1:----------------|----------------|----------------|-15--_-_-_--|
2:----------------|----------------|----------------|-15--_-_-_--|
3:-16-------------|-16--17-16------|-16--17-16------|-16--_-_-_--|
4:-17--19-17--19--|-17---------19--|-17---------19--|-17---------|
5:----------------|----------------|----------------|------------|
6:----------------|----------------|----------------|------------|

1:----------------|----------------|----------------|--------------|
2:----------------|----------------|-15-------------|--------------|
3:-16-------------|-16--17-16--17--|-16--17-16------|-16-----------|
4:-17--19-17--19--|-17-------------|-17---------19--|-17-----------|
5:----------------|----------------|----------------|-------17--19-|
6:----------------|----------------|----------------|--------------|

1:----------------|----------------|----------------|--------------|
2:----------------|----------------|-15-------------|--------------|
3:-16-------------|-16--17-16--17--|-16--17-16------|-16-----------|
4:-17--19-17--19--|-17-------------|------------19--|-17-----------|
5:----------------|----------------|----------------|-------17--19-|
6:----------------|----------------|----------------|--------------|

1:----------------|----------------|-----------------|---------------|
2:----------------|----------------|-----------------|---------------|
3:-16-------------|-16--17-16------|-16-----/16------|-16------------|
4:-17--19-17--19--|-17---------19--|-17--19------19--|-17---17-------|
5:----------------|----------------|-----------------|---------17^19-|
6:----------------|----------------|-----------------|---------------|

1:----------------|----------------|----------------|--------------|
2:----------------|----------------|-15-------------|--------------|
3:-16-------------|-16--17-16--17--|-16--17-16------|-16-----------|
4:-17--19-17--19--|-17-------------|-17---------19--|-17-----------|
5:----------------|----------------|----------------|-------17--19-|
6:----------------|----------------|----------------|--------------|
comments
We did not receive enough feedback on this tab! Please rate:
print report bad tab
1 2 3 4 5
I want to post or [tab]
guest
You may want to rate the tab now too:
select rating
Please do not post tabs as comments. Select "correction" instead!