Oops, an error
Loading. Please wait.

Unravel tab

version 3
version 3

Whole song

by Björk
3,081 views 6 this week
2 commentsread comments
1 2 3 4 5
x 3
add to favorites
×
Save as Personal and add changes to this tab that will be seen only by you. Learn more ›
×
You can save this tab as Personal to edit and correct it or add notes. All changes will be seen only by you. Learn more »
launch autoscroll
font size
0
reset
how to read this tab
guitar tuner
edit
Autoscroll
slow
fast
+/-
esc
set tempo
stop
Difficulty
-------------------------------------------------------------------------------
                             Unravel - Bjork
-------------------------------------------------------------------------------
Tabbed by: Dan Jensen
Email: dbj2479@yahoo.com

Tuning: standard

I listened a few times and tried some chords out. I think this is as close as you can 
If there are any other suggestions/variations, feel free to comment. Thanks!

Beginning

e|---------------------------------------------------------------------------|
B|---------------------------------------------------------------------------|
G|--------------------------2-------4---0-------------2--------4---0---------|
D|------------------------------0-------------------------0------------------|
A|--3---5---3---5---3---5--------------------3---5---------------------------|
E|---------------------------------------------------------------------------|

Verse and Chorus

e|---------------2---------2-----------5---------3-----------------------------|
B|------1--------3---------3-----------3---------3-----------------------------|
G|---------------2---------4-----------4---------4-----------------------------|
D|------2------------------4-----------5---------5-----------------------------|
A|------3------------------2---------------------------------------------------|
E|-----------------------------------------------------------------------------|

        C       D         Bm          Gadd9      Gm
        2x      2x        2x            1x        1x

            
            
Suggest correction
Creating personal tab
Creating personal tab
You can edit any tab online and save it as your Personal.

You can edit, replace or remove any tab part or add personal notes – all changes will be seen only by you.

Personal tabs can be accessed anytime from any device, even offline.
Learn more »
Give kudos to tab author, rate the tab!
1 2 3 4 5
comments
print report bad tab
2 comments total.
+1 reply
eccentric_boob 487 Oct 31, 2014 02:05 PM

Your beginning is just slightly off. It should be:
e|-------------------------------------------------|
B|-------------------------------------------------|
G|----------------------2-----4---0-----2----4---0-|
D|-------------------------0---------------0-------|
A|--3---5---3---5---3----------------3-------------|
E|-------------------------------------------------|

Glad to help!

-e_b

0 reply
z424018983 10 Nov 02, 2015 10:47 PM

didn't like this contribution

guest
Wanna post a correction for this tab? Suggest correction