Oops, an error
Loading. Please wait.

Staten Och Kapitalet Tab

version 1
version 1

Whole song

Interactive

21,764 views 21 this week
10 commentsread comments
1 2 3 4 5
x 14
add to favorites
launch autoscroll
font size
0
reset
how to read this tab
guitar tuner
×
Best way to learn
"Staten Och Kapitalet"
Autoscroll
slow
fast
+/-
esc
set tempo
stop
Author
This is an easy song to play.. Just play it:)

Standard tuning

[Verse]
e|-------------------------------------|
B|-------------------------------------|
G|-------------------------------------|
D|-------------------------------------|
A|-777777777777777--33333333--55555555-|
E|-555555555555555--11111111--33333333-|

[Chorus]
e|--------------------------------------------------------------------|
B|--------------------------------------------------------------------|
G|--------------------------------------------------------------------|
D|---------------------------------------55555555------------77777777-|
A|-7777777777777777--33333333--55555555--33333333--33333333--55555555-|
E|-5555555555555555--11111111--33333333------------11111111-----------|

e|--------------------------------------------------------------------|
B|--------------------------------------------------------------------|
G|--------------------------------------------------------------------|
D|-----------55555555------------55555555------------5555555555555555-|
A|-55555555--33333333--55555555--33333333--55555555--3333333333333333-|
E|-33333333------------33333333------------33333333-------------------|

 right before solo:
e|--------------------------------------|
B|--------------------------------------|
G|--------------------------------------|
D|--------------------------------------|
A|-77777777--33333333--5555555555555555-|
E|-55555555--11111111--3333333333333333-|

[first solo]
e|--------------------------------------------|
B|----55----55----55----55--5^^-5-3-1-3-1-0---|
G|-22----22----22----22---------------------0-|
D|--------------------------------------------|
A|--------------------------------------------|
E|--------------------------------------------|

 second time:
e|--------------------------------------3----------|
B|----55----55----55----55--5^^-5-3-1-3---0h2p0----|
G|-22----22----22----22--------------------------0-|
D|-------------------------------------------------|
A|-------------------------------------------------|
E|-------------------------------------------------|

[Verse]
e|-------------------------------------|
B|-------------------------------------|
G|-------------------------------------|
D|-------------------------------------|
A|-777777777777777--33333333--55555555-|
E|-555555555555555--11111111--33333333-|

[Chorus]
e|--------------------------------------------------------------------|
B|--------------------------------------------------------------------|
G|--------------------------------------------------------------------|
D|---------------------------------------55555555------------77777777-|
A|-7777777777777777--33333333--55555555--33333333--33333333--55555555-|
E|-5555555555555555--11111111--33333333------------11111111-----------|

e|--------------------------------------------------------------------|
B|--------------------------------------------------------------------|
G|--------------------------------------------------------------------|
D|-----------55555555------------55555555------------5555555555555555-|
A|-55555555--33333333--55555555--33333333--55555555--3333333333333333-|
E|-33333333------------33333333------------33333333-------------------|

[Second solo]
e|-0-5-5-5-3-0-5-3-0-----------0-----3^^-1-0-------------------------5^^-|
B|-------------------------1-3---3-1---------3--4h5-5555-4h5-5555555-----|
G|--------------------0--2-----------------------------------------------|
D|-----------------------------------------------------------------------|
A|-----------------------------------------------------------------------|
E|-----------------------------------------------------------------------|

e|-5-3-0---------------------3---3-----------|
B|-------3-1---1-1---1-1/5-5---5---5-3-1-0---|
G|-----------2-----2-----------------------0-|
D|-------------------------------------------|
A|-------------------------------------------|
E|-------------------------------------------|

[Chorus]
e|--------------------------------------------------------------------|
B|--------------------------------------------------------------------|
G|--------------------------------------------------------------------|
D|---------------------------------------55555555------------77777777-|
A|-7777777777777777--33333333--55555555--33333333--33333333--55555555-|
E|-5555555555555555--11111111--33333333------------11111111-----------|

e|--------------------------------------------------------------------|
B|--------------------------------------------------------------------|
G|--------------------------------------------------------------------|
D|-----------55555555------------55555555------------5555555555555555-|
A|-55555555--33333333--55555555--33333333--55555555--3333333333333333-|
E|-33333333------------33333333------------33333333-------------------|

[Solo 1]
e|--------------------------------------------|
B|----55----55----55----55--5^^-5-3-1-3-1-0---|
G|-22----22----22----22---------------------0-|
D|--------------------------------------------|
A|--------------------------------------------|
E|--------------------------------------------|

[Verse]
e|-------------------------------------|
B|-------------------------------------|
G|-------------------------------------|
D|-------------------------------------|
A|-777777777777777--33333333--55555555-|
E|-555555555555555--11111111--33333333-|

[Chorus]
e|--------------------------------------------------------------------|
B|--------------------------------------------------------------------|
G|--------------------------------------------------------------------|
D|---------------------------------------55555555------------77777777-|
A|-7777777777777777--33333333--55555555--33333333--33333333--55555555-|
E|-5555555555555555--11111111--33333333------------11111111-----------|

e|--------------------------------------------------------------------|
B|--------------------------------------------------------------------|
G|--------------------------------------------------------------------|
D|-----------55555555------------55555555------------5555555555555555-|
A|-55555555--33333333--55555555--33333333--55555555--3333333333333333-|
E|-33333333------------33333333------------33333333-------------------|

[Outro]
one guitar plays the rythm(the vers thing)
and the second guitar plays the first solo

that's it
Suggest correction
comments
print report bad tab
10 comments total. Showing first comments.
0 reply
Kozuka 10 Apr 05, 2004 08:00 PM

***ing great dude!

0 reply
Kozuka 10 Apr 05, 2004 08:00 PM

she is the slayer.

0 reply
Zanmato 40 Apr 05, 2004 08:00 PM

Well i know!! I came up with that theory ten years ago HEJ VICTOR:D

guest
You may want to rate the tab now too:
select rating
Wanna post a correction for this tab? Suggest correction