Oops, an error
Loading. Please wait.

Die Firma Tab

version 4
version 4

Whole song

Interactive

828 views 1 this week
no commentswrite comment
1 2 3 4 5
please rate
add to favorites
launch autoscroll
font size
0
reset
how to read this tab
guitar tuner
Tab Pro tools
  • play this tab
  • loop segment
  • change instrument
  • show fretboard
  • metronome
Autoscroll
slow
fast
+/-
esc
set tempo
stop
Contributor
Difficulty
novice
0:0 - 0:11
e|------------------------------------------------------------------|
B|------------------------------------------------------------------|
G|--------------9--9-9-9-9--4--4-4-4-4--11-11111111-----------------|
D|--6--6-6-6-6--9--9-9-9-9--4--4-4-4-4--11-11111111-----------------|   2x
A|--6--6-6-6-6--7--7-7-7-7--2--2-2-2-2--9--9-9-9-9------------------|
E|--4--4-4-4-4------------------------------------------------------|

0:12

|------------------------------------------------------------------|
|------------------------------------------------------------------|
|------------------------------------------------------------------|
|--6---------------------------------------------------------------| 
|--6---------------------------------------------------------------|
|--4---------------------------------------------------------------|

0:13 - 0:23 spielt nur bass

0:24 - 0:35
|------------------------------------------------------------------|
|------------------------------------------------------------------|
|----------------9-9-9-9-9-9-9-6-6-6-6-6-6-6-6--6--6--6-6-6-6------|
|--6-6-6-6-6-6-6-9-9-9-9-9-9-9-6-6-6-6-6-6-6-6--6--6--6-6-6-6------|   2x
|--6-6-6-6-6-6-6-7-7-7-7-7-7-7-4-4-4-4-4-4-4-4--4--4--4-4-4-4------|
|--4-4-4-4-4-4-4---------------------------------------------------|
   x x x x x x x x x x x x x x x x x x x x x
 
0:36 - 0:44
|------------------------------------------------------------------|
|------------------------------------------------------------------|
|------9-9-4-4-----------------------------------------------------| 
|--6-6-9-9-4-4-----------------------------------------------------| 3x
|--6-6-7-7-2-2-----------------------------------------------------|
|--4-4-------------------------------------------------------------|

0:45 - 0:47
|------------------------------------------------------------------|
|------------------------------------------------------------------|
|--4-4-4-4-4-4-4-4--3-3-3-3-3-3-3-3--------------------------------|
|--4-4-4-4-4-4-4-4--3-3-3-3-3-3-3-3--------------------------------|
|--2-2-2-2-2-2-2-2--1-1-1-1-1-1-1-1--------------------------------|
|------------------------------------------------------------------|
   x x x x x x x x  x x x x x x x x

0:48 - 1:11
|------------------------------------------------------------------|
|------------------------------------------------------------------|
|--------------9--9-9-9-9--4--4-4-4-4--11-11111111-----------------|
|--6--6-6-6-6--9--9-9-9-9--4--4-4-4-4--11-11111111-----------------|   4x
|--6--6-6-6-6--7--7-7-7-7--2--2-2-2-2--9--9-9-9-9------------------|
 --4--4-4-4-4------------------------------------------------------|

1:12 - 1:17
|------------------------------------------------------------------|
|------------------------------------------------------------------|
|----------------------------11111111111111------------------------|
|--9-9-9-9-9-9-9-----4-4-4---11111111111111-2x--4-4-4-6------------|  
|--9-9-9-9-9-9-9-2x--4-4-4---9-9-9-9-9-9-9------4-4-4-6------------|
|--7-7-7-7-7-7-7 ----2-2-2----------------------2-2-2-4------------|

1:18 - 1:20  kleines drum solo :D

1:21 - 1:44

|------------------------------------------------------------------|
|------------------------------------------------------------------|
|----------------9-9-9-9-9-9-9-6-6-6-6-6-6-6-6--6--6--6-6-6-6------|
|--6-6-6-6-6-6-6-9-9-9-9-9-9-9-6-6-6-6-6-6-6-6--6--6--6-6-6-6------|   2x
|--6-6-6-6-6-6-6-7-7-7-7-7-7-7-4-4-4-4-4-4-4-4--4--4--4-4-4-4------|
|--4-4-4-4-4-4-4---------------------------------------------------|
   x x x x x x x x x x x x x x x x x x x x x

1:45 - 1:56
|------------------------------------------------------------------|
|------------------------------------------------------------------|
|------9-9-4-4-----------------------------------------------------| 
|--6-6-9-9-4-4-----------------------------------------------------| 3x
|--6-6-7-7-2-2-----------------------------------------------------|
|--4-4-------------------------------------------------------------|

2:00 - 2:23

|------------------------------------------------------------------|
|------------------------------------------------------------------|
|--------------9--9-9-9-9--4--4-4-4-4--11-11111111-----------------|
|--6--6-6-6-6--9--9-9-9-9--4--4-4-4-4--11-11111111-----------------|   4x
|--6--6-6-6-6--7--7-7-7-7--2--2-2-2-2--9--9-9-9-9------------------|
 --4--4-4-4-4------------------------------------------------------|

2:24 - 2:30
|------------------------------------------------------------------|
|------------------------------------------------------------------|
|----------------------------11111111111111------------------------|
|--9-9-9-9-9-9-9-----4-4-4---11111111111111-2x--4-4-4-6------------|  
|--9-9-9-9-9-9-9-2x--4-4-4---9-9-9-9-9-9-9------4-4-4-6------------|
|--7-7-7-7-7-7-7 ----2-2-2----------------------2-2-2-4------------|

2:33 - 3:08 Solo

ab 2:45 spielt die 2te gitarre als Solo begleitung

|------------------------------------------------------------------|
|------------------------------------------------------------------|
|--------------9--9-9-9-9--4--4-4-4-4--11-11111111-----------------|
|--6--6-6-6-6--9--9-9-9-9--4--4-4-4-4--11-11111111-----------------|   4x
|--6--6-6-6-6--7--7-7-7-7--2--2-2-2-2--9--9-9-9-9------------------|
 --4--4-4-4-4------------------------------------------------------|

3:09 - 3:32

|------------------------------------------------------------------|
|------------------------------------------------------------------|
|--------------9--9-9-9-9--4--4-4-4-4--11-11111111-----------------|
|--6--6-6-6-6--9--9-9-9-9--4--4-4-4-4--11-11111111-----------------|   4x
|--6--6-6-6-6--7--7-7-7-7--2--2-2-2-2--9--9-9-9-9------------------|
 --4--4-4-4-4------------------------------------------------------|

3:33 - 3:39

|------------------------------------------------------------------|
|------------------------------------------------------------------|
|----------------------------11111111111111------------------------|
|--9-9-9-9-9-9-9-----4-4-4---11111111111111-2x--4-4-4-6------------| 
|--9-9-9-9-9-9-9-2x--4-4-4---9-9-9-9-9-9-9------4-4-4-6------------|
|--7-7-7-7-7-7-7 ----2-2-2----------------------2-2-2-4------------|

3:44 - 3:55

|------------------------------------------------------------------|
|------------------------------------------------------------------|
|----------9---9-4----4--------------------------------------------|
|--4-6---6-9---9-4----4-4------------------------------------------| 2x
|--4-6---6-7---7-2----2-4------------------------------------------|
|--2-4---4--------------2------------------------------------------|

3:56

|------------------------------------------------------------------|
|------------------------------------------------------------------|
|------------------------------------------------------------------|
|--6-6-6-6-6-6-6-6-------------------------------------------------| 
|--6-6-6-6-6-6-6-6-------------------------------------------------|
|--4-4-4-4-4-4-4-4-------------------------------------------------|
   x x x x x x x x

3:57 - 4:08

|------------------------------------------------------------------|
|------------------------------------------------------------------|
|--------------9--9-9-9-9--4--4-4-4-4--11-11111111-----------------|
|--6--6-6-6-6--9--9-9-9-9--4--4-4-4-4--11-11111111-----------------|   2x
|--6--6-6-6-6--7--7-7-7-7--2--2-2-2-2--9--9-9-9-9------------------|
|--4--4-4-4-4------------------------------------------------------|

4:09

|------------------------------------------------------------------|
|------------------------------------------------------------------|
|----------------------------11111111111111------------------------|
|--9-9-9-9-9-9-9-----4-4-4---11111111111111-2x--4-4-4-6------------|  
|--9-9-9-9-9-9-9-2x--4-4-4---9-9-9-9-9-9-9------4-4-4-6------------|
|--7-7-7-7-7-7-7 ----2-2-2----------------------2-2-2-4------------|

comments
We did not receive enough feedback on this tab! Please rate:
print report bad tab
1 2 3 4 5
I want to post or [tab]
guest
You may want to rate the tab now too:
select rating
Please do not post tabs as comments. Select "correction" instead!