Oops, an error
Loading. Please wait.

Burnin For You Bass Tab

version 3
version 3

Whole song

Interactive

731 views 6 this week
2 commentsread comments
1 2 3 4 5
accurate
x 3
add to favorites
launch autoscroll
font size
0
reset
guitar tuner
Tab Pro tools
  • play this tab
  • loop segment
  • change instrument
  • show fretboard
  • metronome
×
Best way to learn
"Burnin For You"
Autoscroll
slow
fast
+/-
esc
set tempo
stop
Contributor
Difficulty
novice
Great bass line from a great Long Island,NY band !

Tabbed by: BASSteve

Tuning: EADG

Time signature: 4/4

r = rest (listen for duration)
h = hammer on
p = pull off
/ = slide (low to high)
{}= note inside pointed parenthesis still ringing from previous measure
||= measure gets repeated (see number of times above measure, e.g. 4x)

*My tabs are meant to be read in conjunction with listening to the song.
In other words, there are no specific notations to account for note/rest duration. 
However, you will find that I've made an attempt to strategically space the notes 
and rests within their respective measures in order to represent the appropriate 
durations.


INTRO

   3x
G||--------------------------------|--------------------------------||
D||--------------------------------|--------------------------------||
A||--------------------------------|--------------------------------||
E||1-------------------------------|{1}-----------------------------||



PRE-VERSE

|--------------------------------|--------------------------------|
|--------------------------------|--------------------------------|
|--------------------------------|--------------------------------|
|3---3---3---3---3---3---3---3---|5---5---5---5---5---5---5---5---|



|--------------------------------|--------------------------------|
|--------------------------------|--------------------------------|
|--------------------------------|--------------------------------|
|1---1---1---1---1---1---1---1---|3---3---3---3---3---3---3---3---|
 

                
|--------------------------------|--------------------------------|
|--------------------------------|--------------------------------|
|--------------------------------|--------------------------------|
|0---0---0---0---0---0---0---0---|1---1---1---1---1---1---1---1---|



|--------------------------------|--------------------------------|
|--------------------------------|--------------------------------|
|5---5---5---5---5---5---5---5---|--------------------------------|
|--------------------------------|3---3---3---3---3---3---3---3---|



VERSE 1

|--------------------------------|------------------------5-------|
|--------------------------------|2---2---2---2---2---------------|
|------------------------3-------|--------------------2-----------|
|5---5---5---5---5---0-----------|--------------------------------|



|--------------------------------|--------------------------------|
|------------------------3-------|3---3---3---3---5---------------|
|5---5---5---5---5---------------|--------------------------------|
|--------------------5-----------|------------------------3-------|



|--------------------------------|------------------------5-------|
|--------------------------------|2---2---2---2---2---------------|
|------------------------3-------|--------------------2-----------|
|5---5---5---5---5---0-----------|--------------------------------|



|--------------------------------|--------------------------------|
|------------------------3-------|3---3---3---3---2---------------|
|5---5---5---5---5---------------|------------------------5-------|
|--------------------5-----------|--------------------------------|



|--------------------------------|------------------------5-------|
|--------------------------------|2---2---2---2---2---------------|
|------------------------3-------|--------------------2-----------|
|5---5---5---5---5---0-----------|--------------------------------|



|--------------------------------|--------------------------------|
|------------------------3-------|3---3---3---3---5---------------|
|5---5---5---5---5---------------|--------------------------------|
|--------------------5-----------|------------------------3-------|



|--------------------------------|------------------------5-------|
|--------------------------------|2---2---2---2---2---------------|
|------------------------3-------|--------------------2-----------|
|5---5---5---5---5---0-----------|--------------------------------|



|--------------------------------|--------------------------------|
|------------------------3-------|3---3---3---3---2---2---2---2---|
|5---5---5---5---5---------------|--------------------------------|
|--------------------5-----------|--------------------------------|



PRE-CHORUS

  2x
||--------------------------------|--------------------------------||
||--------------------------------|--------------------------------||
||--------------------------------|--------------------------------||
||5---3---5---r-------3---r---1---|----1---1---r-------3---3---r---||



|--------------------------------|--------------------------------|
|--------------------------------|--------------------------------|
|3---------------------------3---|----3---------------------------|
|--------5-------3-------5-------|--------5-------3-------5---r---|



|--------------------------------|--------------------------------|
|--------------------------------|--------------------------------|
|----------------3---------------|----------------3---------------|
|1-------5---------------5---1---|----1---5-----------1---3-------|



|--------------------------------|--------------------------------|
|--------------------------------|--------------------------------|
|3-------3-------2-------2-------|--------------------------------|
|--------------------------------|5-------5-------3-------3-------|



|--------------------------------|--------------------------------|
|--------------------------------|--------------------------------|
|5-------------------------------|--------------------------------|
|------------------------0---1---|--------------------3---3---r---|



CHORUS

  2x
||--------------------------------|--------------------------------||
||--------------------------------|--------------------------------||
||--------------------------------|--------------------------------||
||5---3---5---r-------3---r---1---|----1---1---r-------3---3---r---||



|--------------------------------|--------------------------------|
|--------------------------------|--------------------------------|
|--------------------------------|--------------------------------|
|5---3---5---r-------3---r---1---|----1---1---r-----------3---r---|


  2x
||--------------------------------|--------------------------------||
||--------------------------------|--------------------------------||
||--------------------------------|--------------------------------||
||1-------------------------------|{1}-----------------------------||



[PRE-VERSE]


[VERSE]


[PRE-CHORUS]



CHORUS 2

  2x
||--------------------------------|--------------------------------||
||--------------------------------|--------------------------------||
||--------------------------------|--------------------------------||
||5---3---5---r-------3---r---1---|----1---1---r-------3---3---r---||



|--------------------------------|--------------------------------|
|--------------------------------|--------------------------------|
|--------------------------------|--------------------------------|
|5---3---5---r-------3---r---1---|----1---1---r-----------3---r---|


 
|--------------------------------|--------------------------------|
|--------------------------------|--------------------------------|
|--------------------------------|--------------------------------|
|1-------------------------------|{1}-----------------------------|



|--------------------------------|--------------------------------|
|--------------------------------|--------------------------------|
|--------------------------------|--------------------------------|
|1-------------------------------|{1}---------------------1/--8---|



[VERSE] (Guitar Solo)


[PRE-CHORUS]



CHORUS 2 / OUTRO

  7x
||--------------------------------|--------------------------------||
||--------------------------------|--------------------------------||
||--------------------------------|--------------------------------||
||5---3---5---r-------3---r---1---|----1---1---r-------3---3---r---||


  3x
||--------------------------------|--------------------------------||
||--------------------------------|--------------------------------||
||--------------------------------|--------------------------------||
||1-------------------------------|{1}-----------------------------||



|--------------------------------|--------------------------------|
|--------------------------------|--------------------------------|
|--------------------------------|--------------------------------|
|{1}--5--------------------------|{5}-----------------------------|


               (PLEASE RATE THIS TAB / LEAVE COMMENT)
comments
We did not receive enough feedback on this tab! Please rate:
print report bad tab
1 2 3 4 5
2 comments total.
0 reply
RedBurro wrote on June 18 2014, 03:17 am

Good tab, liked the way you tabbed it, very clear, only next time could you do us a favor and include the lyrics for a bit of guidance? Maybe the timings too? it really helps

Good tab though :)

0 reply
6METAL6BASSIST6 wrote on November 30 2014, 06:08 am

How is this only rated with 3 stars? it's how it's supposed to be tabbed. and all correct.

I want to post or [tab]
guest
You may want to rate the tab now too:
select rating
Please do not post tabs as comments. Select "correction" instead!