Oops, an error
Loading. Please wait.

Burnin For You Bass Tab

version 2
version 2

Whole song

Interactive

3,549 views 6 this week
no commentswrite comment
1 2 3 4 5
please rate
add to favorites
launch autoscroll
font size
0
reset
guitar tuner
Tab Pro tools
  • play this tab
  • loop segment
  • change instrument
  • show fretboard
  • metronome
×
Best way to learn
"Burnin For You"
Autoscroll
slow
fast
+/-
esc
set tempo
stop
Difficulty
novice
---------------------------------------------------------------------------
                    Blue Oyster Cult-Burnin' for You
----------------------------------------------------------------------------

I can't believe there aren't any reliable tabs for this great, great song!
Tabbed by:mikef9621

Intro:
G------------------------------------|
D------------------------------------|
A------------------------------------|
E--1-------1-------1-----------------|

G-------------------------------------------------------------------|
D-------------------------------------------------------------------|
A-------------------------------------------------------------------|
E--3-3-3-3-3-3-3-3-5-5-5-5-5-5-5-5-1-1-1-1-1-1-1-1-3-3-3-3-3-3-3-3--|

G-------------------------------------------------------------------|
D-------------------------------------------------------------------|
A----------------------------------5-5-5-5-5-5-5-5------------------|
E-0-0-0-0-0-0-0-0-1-1-1-1-1-1-1-1------------------3-3-3-3-3-3-3-3--|

Verse:
G---------------------------------------------------------|
D--------------2--2------5------------3---3--5------------|
A-----------3--------3------5--5---3----------------------|
E--5----0---------------------------------------3---------|

G---------------------------------------------------------|
D--------------2--2-------5-----------3--3--2--2-------.--|
A-----------3--------3-------5--5--3-------------------.--|
E--5----0-------------------------------------------------|

Prechorus
G---------------------------------------------------------|
D---------------------------------------------------------|
A---------------------------------------------------------|
E--5-4-5---3--1--1-1--3-3----5-4-5--3--1--1-1--3-3--------|

G-------------------------------------------------------------------|
D-------------------------------------------------------------------|
A--3-----------3--3-------------------0--3-----------0--3-----------|
E-----5--3--5--------5--3--5--0--1-1---------0--1-1--------3--3-----|

G-------------------------------------------------------------|
D-------------------------------------------------------------|
A--3--2-------------3--5--------------------------------------|
E---------5--3---5---------0--1-----3-3-----------------------|

Chorus:
G---------------------------------------------------------------|
D---------------------------------------------------------------|
A---------------------------------------------------------------|
E--5-4-5--3--1--1-1---3-3-----5-4-5--3--1--1-1---3-3------------|

That's all the parts, you can put it together. Enjoy!
comments
We did not receive enough feedback on this tab! Please rate:
print report bad tab
1 2 3 4 5
I want to post or [tab]
guest
You may want to rate the tab now too:
select rating
Please do not post tabs as comments. Select "correction" instead!